  0
SECTION
  2
HEADER
  9
$ACADVER
  1
AC1014
  9
$ACADMAINTVER
 70
           0
  9
$DWGCODEPAGE
  3
ANSI_1252
  9
$INSBASE
 10
0.0
 20
0.0
 30
0.0
  9
$EXTMIN
 10
0.304262238532
 20
0.204416
 30
0.0
  9
$EXTMAX
 10
41.695849
 20
26.795546
 30
0.0
  9
$LIMMIN
 10
0.000841579761
 20
0.000565408212
  9
$LIMMAX
 10
70.256432130942
 20
49.179478794039
  9
$ORTHOMODE
 70
           0
  9
$REGENMODE
 70
           1
  9
$FILLMODE
 70
           1
  9
$QTEXTMODE
 70
           0
  9
$MIRRTEXT
 70
           1
  9
$DRAGMODE
 70
           0
  9
$LTSCALE
 40
1.0
  9
$OSMODE
 70
          37
  9
$ATTMODE
 70
           1
  9
$TEXTSIZE
 40
2.5
  9
$TRACEWID
 40
1.0
  9
$TEXTSTYLE
  7
STANDARD
  9
$CLAYER
  8
0
  9
$CELTYPE
  6
CONTINUOUS
  9
$CECOLOR
 62
           7
  9
$CELTSCALE
 40
1.0
  9
$DELOBJ
 70
           1
  9
$DISPSILH
 70
           0
  9
$DIMSCALE
 40
1.0
  9
$DIMASZ
 40
2.5
  9
$DIMEXO
 40
0.625
  9
$DIMDLI
 40
3.75
  9
$DIMRND
 40
0.0000002
  9
$DIMDLE
 40
0.0
  9
$DIMEXE
 40
1.25
  9
$DIMTP
 40
0.0
  9
$DIMTM
 40
0.0
  9
$DIMTXT
 40
1.5
  9
$DIMCEN
 40
0.09
  9
$DIMTSZ
 40
0.0
  9
$DIMTOL
 70
           0
  9
$DIMLIM
 70
           0
  9
$DIMTIH
 70
           0
  9
$DIMTOH
 70
           0
  9
$DIMSE1
 70
           0
  9
$DIMSE2
 70
           0
  9
$DIMTAD
 70
           1
  9
$DIMZIN
 70
           8
  9
$DIMBLK
  1

  9
$DIMASO
 70
           0
  9
$DIMSHO
 70
           1
  9
$DIMPOST
  1

  9
$DIMAPOST
  1

  9
$DIMALT
 70
           0
  9
$DIMALTD
 70
           3
  9
$DIMALTF
 40
1.0
  9
$DIMLFAC
 40
1.0
  9
$DIMTOFL
 70
           1
  9
$DIMTVP
 40
0.0
  9
$DIMTIX
 70
           0
  9
$DIMSOXD
 70
           0
  9
$DIMSAH
 70
           0
  9
$DIMBLK1
  1

  9
$DIMBLK2
  1

  9
$DIMSTYLE
  2
STANDARD
  9
$DIMCLRD
 70
           0
  9
$DIMCLRE
 70
           0
  9
$DIMCLRT
 70
           0
  9
$DIMTFAC
 40
1.0
  9
$DIMGAP
 40
0.625
  9
$DIMJUST
 70
           0
  9
$DIMSD1
 70
           0
  9
$DIMSD2
 70
           0
  9
$DIMTOLJ
 70
           1
  9
$DIMTZIN
 70
           0
  9
$DIMALTZ
 70
           8
  9
$DIMALTTZ
 70
           0
  9
$DIMFIT
 70
           0
  9
$DIMUPT
 70
           0
  9
$DIMUNIT
 70
           2
  9
$DIMDEC
 70
           2
  9
$DIMTDEC
 70
           2
  9
$DIMALTU
 70
           2
  9
$DIMALTTD
 70
           3
  9
$DIMTXSTY
  7
STANDARD
  9
$DIMAUNIT
 70
           0
  9
$LUNITS
 70
           2
  9
$LUPREC
 70
           4
  9
$SKETCHINC
 40
1.0
  9
$FILLETRAD
 40
10.0
  9
$AUNITS
 70
           0
  9
$AUPREC
 70
           0
  9
$MENU
  1
acad
  9
$ELEVATION
 40
0.0
  9
$PELEVATION
 40
0.0
  9
$THICKNESS
 40
0.0
  9
$LIMCHECK
 70
           0
  9
$BLIPMODE
 70
           1
  9
$CHAMFERA
 40
0.0
  9
$CHAMFERB
 40
0.0
  9
$CHAMFERC
 40
0.0
  9
$CHAMFERD
 40
0.0
  9
$SKPOLY
 70
           0
  9
$TDCREATE
 40
0.000000000
  9
$TDUPDATE
 40
2455311.021131863
  9
$TDINDWG
 40
0.0000000000
  9
$TDUSRTIMER
 40
0.0000000000
  9
$USRTIMER
 70
           1
  9
$ANGBASE
 50
0.0
  9
$ANGDIR
 70
           1
  9
$PDMODE
 70
           3
  9
$PDSIZE
 40
-0.7
  9
$PLINEWID
 40
0.0
  9
$COORDS
 70
           0
  9
$SPLFRAME
 70
           0
  9
$SPLINETYPE
 70
           6
  9
$SPLINESEGS
 70
           8
  9
$ATTDIA
 70
           0
  9
$ATTREQ
 70
           1
  9
$HANDLING
 70
           1
  9
$HANDSEED
  5
85
  9
$SURFTAB1
 70
           6
  9
$SURFTAB2
 70
           6
  9
$SURFTYPE
 70
           6
  9
$SURFU
 70
           6
  9
$SURFV
 70
           6
  9
$UCSNAME
  2

  9
$UCSORG
 10
0.0
 20
0.0
 30
0.0
  9
$UCSXDIR
 10
1.0
 20
0.0
 30
0.0
  9
$UCSYDIR
 10
0.0
 20
1.0
 30
0.0
  9
$PUCSNAME
  2

  9
$PUCSORG
 10
0.0
 20
0.0
 30
0.0
  9
$PUCSXDIR
 10
1.0
 20
0.0
 30
0.0
  9
$PUCSYDIR
 10
0.0
 20
1.0
 30
0.0
  9
$USERI1
 70
           0
  9
$USERI2
 70
           0
  9
$USERI3
 70
           0
  9
$USERI4
 70
           0
  9
$USERI5
 70
           0
  9
$USERR1
 40
0.0
  9
$USERR2
 40
0.0
  9
$USERR3
 40
0.0
  9
$USERR4
 40
0.0
  9
$USERR5
 40
0.0
  9
$WORLDVIEW
 70
           1
  9
$SHADEDGE
 70
           3
  9
$SHADEDIF
 70
          70
  9
$TILEMODE
 70
           1
  9
$MAXACTVP
 70
          16
  9
$PINSBASE
 10
0.0
 20
0.0
 30
0.0
  9
$PLIMCHECK
 70
           0
  9
$PEXTMIN
 10
0.0
 20
0.0
 30
0.0
  9
$PEXTMAX
 10
6.377952755906
 20
9.015748031496
 30
0.0
  9
$PLIMMIN
 10
0.0
 20
0.0
  9
$PLIMMAX
 10
6.377952755906
 20
9.015748031496
  9
$UNITMODE
 70
           0
  9
$VISRETAIN
 70
           0
  9
$PLINEGEN
 70
           1
  9
$PSLTSCALE
 70
           1
  9
$TREEDEPTH
 70
        3020
  9
$PICKSTYLE
 70
           1
  9
$CMLSTYLE
  2
STANDARD
  9
$CMLJUST
 70
           0
  9
$CMLSCALE
 40
1.0
  9
$PROXYGRAPHICS
 70
           0
  9
$MEASUREMENT
 70
           0
  0
ENDSEC
  0
SECTION
  2
CLASSES
  0
CLASS
  1
LWPOLYLINE
  2
AcDbPolyline
  3
"AutoCAD"
 90
        0
280
           0
281
           1
  0
CLASS
  1
IMAGE
  2
AcDbRasterImage
  3
ISM
 90
      127
280
           0
281
           1
  0
CLASS
  1
OLE2FRAME
  2
AcDbOle2Frame
  3
""
 90
        0
280
           0
281
           1
  0
CLASS
  1
HATCH
  2
AcDbHatch
  3
"ACAD_SEDONA"
 90
        0
280
           0
281
           1
  0
CLASS
  1
DICTIONARYVAR
  2
AcDbDictionaryVar
  3
"AutoCAD"
 90
        0
280
           0
281
           0
  0
CLASS
  1
RASTERVARIABLES
  2
AcDbRasterVariables
  3
ISM
 90
        0
280
           0
281
           0
  0
CLASS
  1
IMAGEDEF
  2
AcDbRasterImageDef
  3
ISM
 90
        0
280
           0
281
           0
  0
CLASS
  1
IMAGEDEF_REACTOR
  2
AcDbRasterImageDefReactor
  3
ISM
 90
        1
280
           0
281
           0
  0
CLASS
  1
IDBUFFER
  2
AcDbIdBuffer
  3
"Acad"
 90
        0
280
           0
281
           0
  0
CLASS
  1
SPATIAL_FILTER
  2
AcDbSpatialFilter
  3
"Acad"
 90
        0
280
           0
281
           0
  0
CLASS
  1
XRECORD
  2
AcDbXrecord
  3
"<Built In>"
 90
        0
280
           0
281
           0
  0
CLASS
  1
SORTENTSTABLE
  2
AcDbSortentsTable
  3
"AutoCAD"
 90
        0
280
           0
281
           0
  0
CLASS
  1
LAYER_INDEX
  2
AcDbLayerIndex
  3
"Acad"
 90
        0
280
           0
281
           0
  0
CLASS
  1
SPATIAL_INDEX
  2
AcDbSpatialIndex
  3
"Acad"
 90
        0
280
           0
281
           0
  0
CLASS
  1
OBJECT_PTR
  2
CAseDLPNTableRecord
  3
"ASE-LPNTableRecord"
 90
        1
280
           0
281
           0
  0
CLASS
  1
LAYOUT
  2
AcDbLayout
  3
"AutoCAD 2000"
 90
        1
280
           0
281
           0
  0
CLASS
  1
PLOTSETTINGS
  2
AcDbPlotSettings
  3
"AutoCAD 2000"
 90
        1
280
           0
281
           0
  0
CLASS
  1
ACDBDICTIONARYWDFLT
  2
AcDbDictionaryWithDefault
  3
"AutoCAD 2000"
 90
        1
280
           0
281
           0
  0
CLASS
  1
ACDBPLACEHOLDER
  2
AcDbPlaceHolder
  3
"AutoCAD 2000"
 90
        1
280
           0
281
           0
  0
ENDSEC
  0
SECTION
  2
TABLES
  0
TABLE
  2
VPORT
  5
7
100
AcDbSymbolTable
 70
           1
  0
VPORT
  5
15
100
AcDbSymbolTableRecord
100
AcDbViewportTableRecord
  2
*ACTIVE
 70
           0
 10
0.0
 20
0.0
 11
1.0
 21
1.0
 12
0.0
 22
0.0
 13
0.0
 23
0.0
 14
10.0
 24
10.0
 15
10.0
 25
10.0
 16
0.0
 26
0.0
 36
1.0
 17
21.000055619266
 27
13.499981
 37
0.0
 40
27.1229526
 41
2.590263691684
 42
50.0
 43
0.0
 44
0.0
 50
0.0
 51
0.0
 71
           0
 72
         100
 73
           1
 74
           1
 75
           0
 76
           0
 77
           0
 78
           0
  0
ENDTAB
  0
TABLE
  2
LTYPE
  5
4
100
AcDbSymbolTable
 70
          14
  0
LTYPE
  5
11
100
AcDbSymbolTableRecord
100
AcDbLinetypeTableRecord
  2
BYBLOCK
 70
          64
  3

 72
          65
 73
           0
 40
0.0
  0
LTYPE
  5
12
100
AcDbSymbolTableRecord
100
AcDbLinetypeTableRecord
  2
BYLAYER
 70
          64
  3

 72
          65
 73
           0
 40
0.0
  0
LTYPE
  5
13
100
AcDbSymbolTableRecord
100
AcDbLinetypeTableRecord
  2
CONTINUOUS
 70
          64
  3
Solid line
 72
          65
 73
           0
 40
0.0
  0
LTYPE
  5
1E
100
AcDbSymbolTableRecord
100
AcDbLinetypeTableRecord
  2
BORDER
 70
           0
  3
BORDER
 72
          65
 73
           6
 40
1.75
 49
0.5
 74
           0
 49
-0.25
 74
           0
 49
0.5
 74
           0
 49
-0.25
 74
           0
 49
0.0
 74
           0
 49
-0.25
 74
           0
  0
LTYPE
  5
1F
100
AcDbSymbolTableRecord
100
AcDbLinetypeTableRecord
  2
CENTER
 70
           0
  3
CENTER
 72
          65
 73
           4
 40
2.0
 49
1.25
 74
           0
 49
-0.25
 74
           0
 49
0.25
 74
           0
 49
-0.25
 74
           0
  0
LTYPE
  5
20
100
AcDbSymbolTableRecord
100
AcDbLinetypeTableRecord
  2
DASHDOT
 70
           0
  3
DASHDOT
 72
          65
 73
           4
 40
1.0
 49
0.5
 74
           0
 49
-0.25
 74
           0
 49
0.0
 74
           0
 49
-0.25
 74
           0
  0
LTYPE
  5
21
100
AcDbSymbolTableRecord
100
AcDbLinetypeTableRecord
  2
DASHED
 70
           0
  3
DASHED
 72
          65
 73
           2
 40
0.75
 49
0.5
 74
           0
 49
-0.25
 74
           0
  0
LTYPE
  5
22
100
AcDbSymbolTableRecord
100
AcDbLinetypeTableRecord
  2
DIVIDE
 70
           0
  3
DIVIDE
 72
          65
 73
           6
 40
1.25
 49
0.5
 74
           0
 49
-0.25
 74
           0
 49
0.0
 74
           0
 49
-0.25
 74
           0
 49
0.0
 74
           0
 49
-0.25
 74
           0
  0
LTYPE
  5
23
100
AcDbSymbolTableRecord
100
AcDbLinetypeTableRecord
  2
DOT
 70
           0
  3
DOT
 72
          65
 73
           2
 40
0.25
 49
0.0
 74
           0
 49
-0.25
 74
           0
  0
LTYPE
  5
24
100
AcDbSymbolTableRecord
100
AcDbLinetypeTableRecord
  2
HIDDEN
 70
           0
  3
HIDDEN
 72
          65
 73
           2
 40
0.375
 49
0.25
 74
           0
 49
-0.125
 74
           0
  0
LTYPE
  5
25
100
AcDbSymbolTableRecord
100
AcDbLinetypeTableRecord
  2
PHANTOM
 70
           0
  3
PHANTOM
 72
          65
 73
           6
 40
2.5
 49
1.25
 74
           0
 49
-0.25
 74
           0
 49
0.25
 74
           0
 49
-0.25
 74
           0
 49
0.25
 74
           0
 49
-0.25
 74
           0
  0
LTYPE
  5
26
100
AcDbSymbolTableRecord
100
AcDbLinetypeTableRecord
  2
$INVISIBLE
 70
           0
  3
$INVISIBLE
 72
          65
 73
           2
 40
200.0
 49
-100.0
 74
           0
 49
-100.0
 74
           0
  0
LTYPE
  5
27
100
AcDbSymbolTableRecord
100
AcDbLinetypeTableRecord
  2
$SNAPEXT
 70
           0
  3
$SNAPEXT
 72
          65
 73
           2
 40
0.04
 49
0.02
 74
           0
 49
-0.02
 74
           0
  0
LTYPE
  5
28
100
AcDbSymbolTableRecord
100
AcDbLinetypeTableRecord
  2
$AUXILIARY
 70
           0
  3
$AUXILIARY
 72
          65
 73
           2
 40
0.1
 49
0.05
 74
           0
 49
-0.05
 74
           0
  0
ENDTAB
  0
TABLE
  2
LAYER
  5
2
100
AcDbSymbolTable
 70
           1
  0
LAYER
  5
14
100
AcDbSymbolTableRecord
100
AcDbLayerTableRecord
  2
0
 70
           0
 62
           7
  6
CONTINUOUS
1001
TCAD
1000
TCW_LAYER_ORDER
1002
{
1071
        0
1002
}
  0
ENDTAB
  0
TABLE
  2
STYLE
  5
3
100
AcDbSymbolTable
 70
           5
  0
STYLE
  5
17
100
AcDbSymbolTableRecord
100
AcDbTextStyleTableRecord
  2
STANDARD
 70
           0
 40
0.0
 41
1.0
 50
0.0
 71
           0
 42
1.0
  3
ROMANS.SHX
  4

  0
STYLE
  5
2A
100
AcDbSymbolTableRecord
100
AcDbTextStyleTableRecord
  2
STANDARD0
 70
           0
 40
0.0
 41
1.0
 50
0.0
 71
           0
 42
1.0
  3
ROMANS.SHX
  4

  0
STYLE
  5
2B
100
AcDbSymbolTableRecord
100
AcDbTextStyleTableRecord
  2
STANDARD1
 70
           0
 40
0.0
 41
1.0
 50
0.0
 71
           0
 42
1.0
  3
ROMANS.SHX
  4

  0
STYLE
  5
2C
100
AcDbSymbolTableRecord
100
AcDbTextStyleTableRecord
  2
STANDARD00
 70
           0
 40
1.0
 41
1.0
 50
0.0
 71
           0
 42
2.5
  3
ROMANS.SHX
  4

  0
STYLE
  5
2D
100
AcDbSymbolTableRecord
100
AcDbTextStyleTableRecord
  2
_TCW_TXTSTY_1
 70
           0
 40
0.0
 41
1.0
 50
0.0
 71
           0
 42
0.600000023842
  3

  4

1001
ACAD
1000
Times New Roman
1071
      290
  0
ENDTAB
  0
TABLE
  2
VIEW
  5
5
100
AcDbSymbolTable
 70
           1
  0
VIEW
  5
29
100
AcDbSymbolTableRecord
100
AcDbViewTableRecord
  2
VIEW_0
 70
           0
 40
8.267716535433
 10
5.846456692913
 20
4.133858267717
 41
11.692913385827
 11
0.0
 21
0.0
 31
1.0
 12
0.0
 22
0.0
 32
0.0
 42
45.247172312671
 43
0.0
 44
0.0
 50
0.0
 71
           0
  0
ENDTAB
  0
TABLE
  2
UCS
  5
6
100
AcDbSymbolTable
 70
           0
  0
ENDTAB
  0
TABLE
  2
APPID
  5
8
100
AcDbSymbolTable
 70
           2
  0
APPID
  5
16
100
AcDbSymbolTableRecord
100
AcDbRegAppTableRecord
  2
ACAD
 70
           0
  0
APPID
  5
1D
100
AcDbSymbolTableRecord
100
AcDbRegAppTableRecord
  2
TCAD
 70
           0
  0
ENDTAB
  0
TABLE
  2
DIMSTYLE
  5
9
100
AcDbSymbolTable
 70
           2
  0
DIMSTYLE
105
18
100
AcDbSymbolTableRecord
100
AcDbDimStyleTableRecord
  2
STANDARD
 70
           0
  3

  4

  5

  6

  7

 40
1.0
 41
2.5
 42
0.625
 43
3.75
 44
1.25
 45
0.0000002
 46
0.0
 47
0.0
 48
0.0
 71
           0
 72
           0
 73
           0
 74
           0
 75
           0
 76
           0
 77
           1
 78
           8
140
1.5
141
0.09
142
0.0
143
1.0
144
1.0
145
0.0
146
1.0
147
0.625
170
           0
171
           3
172
           1
173
           0
174
           0
175
           0
176
           0
177
           0
178
           0
270
           2
271
           2
272
           2
273
           2
274
           3
275
           0
280
           0
281
           0
282
           0
283
           1
284
           0
285
           8
286
           0
287
           0
288
           0
340
2D
  0
DIMSTYLE
105
2E
100
AcDbSymbolTableRecord
100
AcDbDimStyleTableRecord
  2
ISO-25
 70
           0
  3

  4

  5

  6

  7

 40
1.0
 41
2.5
 42
0.625
 43
0.38
 44
1.25
 45
0.0000001
 46
0.0
 47
0.0
 48
0.0
 71
           0
 72
           0
 73
           0
 74
           0
 75
           0
 76
           0
 77
           1
 78
           8
140
1.0
141
0.09
142
0.0
143
25.4
144
1.0
145
0.0
146
1.0
147
0.625
170
           0
171
           2
172
           0
173
           0
174
           0
175
           0
176
           0
177
           0
178
           0
270
           2
271
           2
272
           0
273
           2
274
           2
275
           0
280
           0
281
           0
282
           0
283
           0
284
           0
285
           8
286
           0
287
           0
288
           0
340
2B
  0
ENDTAB
  0
TABLE
  2
BLOCK_RECORD
  5
1
100
AcDbSymbolTable
 70
           1
  0
BLOCK_RECORD
  5
A
100
AcDbSymbolTableRecord
100
AcDbBlockTableRecord
  2
*MODEL_SPACE
  0
BLOCK_RECORD
  5
B
100
AcDbSymbolTableRecord
100
AcDbBlockTableRecord
  2
*PAPER_SPACE
  0
ENDTAB
  0
ENDSEC
  0
SECTION
  2
BLOCKS
  0
BLOCK
  5
D
100
AcDbEntity
  8
0
100
AcDbBlockBegin
  2
*MODEL_SPACE
 70
           0
 10
0.0
 20
0.0
 30
0.0
  3
*MODEL_SPACE
  1

  0
ENDBLK
  5
E
100
AcDbEntity
  8
0
100
AcDbBlockEnd
  0
BLOCK
  5
F
100
AcDbEntity
 67
           1
  8
0
100
AcDbBlockBegin
  2
*PAPER_SPACE
 70
           0
 10
0.0
 20
0.0
 30
0.0
  3
*PAPER_SPACE
  1

  0
ENDBLK
  5
10
100
AcDbEntity
 67
           1
  8
0
100
AcDbBlockEnd
  0
ENDSEC
  0
SECTION
  2
ENTITIES
  0
LWPOLYLINE
  5
2F
100
AcDbEntity
  8
0
100
AcDbPolyline
 90
      600
 70
         129
 10
33.78486
 20
17.1184
 42
0.023792
 10
33.698802
 20
16.882053
 42
0.002406
 10
33.624086
 20
16.881721
 42
0.023792
 10
33.535936
 20
17.117297
 42
0.002692
 10
33.449797
 20
17.11511
 42
0.023792
 10
33.373712
 20
16.875366
 42
0.002406
 10
33.299075
 20
16.871907
 42
0.023792
 10
33.201138
 20
17.103584
 42
0.002692
 10
33.115166
 20
17.097793
 42
0.023792
 10
33.049188
 20
16.855073
 42
0.002406
 10
32.974761
 20
16.848491
 42
0.023792
 10
32.867208
 20
17.075864
 42
0.002692
 10
32.781554
 20
17.066477
 42
0.023792
 10
32.725797
 20
16.821207
 42
0.002406
 10
32.651711
 20
16.811514
 42
0.023792
 10
32.534732
 20
17.034184
 42
0.002692
 10
32.449546
 20
17.021219
 42
0.023792
 10
32.404109
 20
16.773829
 42
0.002406
 10
32.330494
 20
16.761043
 42
0.023792
 10
32.204292
 20
16.978618
 42
0.002692
 10
32.119724
 20
16.962097
 42
0.023792
 10
32.084687
 20
16.713022
 42
0.002406
 10
32.011671
 20
16.697164
 42
0.023792
 10
31.87647
 20
16.909264
 42
0.002692
 10
31.792667
 20
16.889216
 42
0.023792
 10
31.768091
 20
16.638892
 42
0.002406
 10
31.695804
 20
16.61999
 42
0.023792
 10
31.551839
 20
16.826243
 42
0.002692
 10
31.46895
 20
16.802703
 42
0.023792
 10
31.454877
 20
16.55157
 42
0.002406
 10
31.383445
 20
16.529657
 42
0.023792
 10
31.230969
 20
16.7297
 42
0.002692
 10
31.149138
 20
16.70271
 42
0.023792
 10
31.145595
 20
16.451208
 42
0.002406
 10
31.075143
 20
16.426323
 42
0.023792
 10
30.914424
 20
16.619805
 42
0.002692
 10
30.833795
 20
16.589412
 42
0.023792
 10
30.840786
 20
16.337982
 42
0.002406
 10
30.771438
 20
16.310169
 42
0.023792
 10
30.602758
 20
16.496752
 42
0.002692
 10
30.523473
 20
16.463009
 42
0.023792
 10
30.540987
 20
16.212092
 42
0.002406
 10
30.472864
 20
16.181399
 42
0.023792
 10
30.296519
 20
16.360755
 42
0.002692
 10
30.218716
 20
16.323721
 42
0.023792
 10
30.246722
 20
16.073758
 42
0.002406
 10
30.179944
 20
16.04024
 42
0.023792
 10
29.996243
 20
16.212053
 42
0.002692
 10
29.920059
 20
16.171794
 42
0.023792
 10
29.958508
 20
15.923223
 42
0.002406
 10
29.893193
 20
15.886938
 42
0.023792
 10
29.702458
 20
16.050907
 42
0.002692
 10
29.628027
 20
16.007494
 42
0.023792
 10
29.676851
 20
15.76075
 42
0.002406
 10
29.613112
 20
15.721762
 42
0.023792
 10
29.415678
 20
15.877601
 42
0.002692
 10
29.34313
 20
15.831108
 42
0.023792
 10
29.402244
 20
15.586626
 42
0.002406
 10
29.340194
 20
15.545003
 42
0.023792
 10
29.136407
 20
15.692437
 42
0.002692
 10
29.06587
 20
15.642948
 42
0.023792
 10
29.13517
 20
15.401155
 42
0.002406
 10
29.074917
 20
15.35697
 42
0.023792
 10
28.865135
 20
15.495741
 42
0.002692
 10
28.796732
 20
15.443341
 42
0.023792
 10
28.876096
 20
15.204663
 42
0.002406
 10
28.817747
 20
15.157993
 42
0.023792
 10
28.602338
 20
15.287858
 42
0.002692
 10
28.536189
 20
15.23264
 42
0.023792
 10
28.625479
 20
14.997494
 42
0.002406
 10
28.569135
 20
14.948422
 42
0.023792
 10
28.348476
 20
15.069153
 42
0.002692
 10
28.284698
 20
15.011213
 42
0.023792
 10
28.383756
 20
14.780012
 42
0.002406
 10
28.329517
 20
14.728624
 42
0.023792
 10
28.103996
 20
14.840009
 42
0.002692
 10
28.0427
 20
14.779449
 42
0.023792
 10
28.151353
 20
14.552599
 42
0.002406
 10
28.099313
 20
14.498984
 42
0.023792
 10
27.869326
 20
14.600828
 42
0.002692
 10
27.810619
 20
14.537754
 42
0.023792
 10
27.928676
 20
14.315653
 42
0.002406
 10
27.878927
 20
14.259906
 42
0.023792
 10
27.644877
 20
14.352029
 42
0.002692
 10
27.588864
 20
14.286553
 42
0.023792
 10
27.716117
 20
14.06959
 42
0.002406
 10
27.668746
 20
14.011809
 42
0.023792
 10
27.431044
 20
14.09405
 42
0.002692
 10
27.377821
 20
14.026285
 42
0.023792
 10
27.514049
 20
13.814843
 42
0.002406
 10
27.469139
 20
13.755128
 42
0.023792
 10
27.228201
 20
13.827343
 42
0.002692
 10
27.177863
 20
13.757409
 42
0.023792
 10
27.322826
 20
13.551856
 42
0.002406
 10
27.280456
 20
13.490314
 42
0.023792
 10
27.036705
 20
13.552376
 42
0.002692
 10
26.98934
 20
13.480395
 42
0.023792
 10
27.142783
 20
13.281093
 42
0.002406
 10
27.103027
 20
13.21783
 42
0.023792
 10
26.856892
 20
13.269631
 42
0.002692
 10
26.812582
 20
13.19573
 42
0.023792
 10
26.974236
 20
13.003028
 42
0.002406
 10
26.937165
 20
12.938156
 42
0.023792
 10
26.689076
 20
12.979604
 42
0.002692
 10
26.6479
 20
12.903912
 42
0.023792
 10
26.817482
 20
12.718149
 42
0.002406
 10
26.783159
 20
12.651781
 42
0.023792
 10
26.533552
 20
12.682804
 42
0.002692
 10
26.495582
 20
12.605455
 42
0.023792
 10
26.672794
 20
12.426956
 42
0.002406
 10
26.641281
 20
12.359209
 42
0.023792
 10
26.390594
 20
12.379752
 42
0.002692
 10
26.355896
 20
12.30088
 42
0.023792
 10
26.540427
 20
12.129959
 42
0.002406
 10
26.511779
 20
12.060952
 42
0.023792
 10
26.260451
 20
12.070979
 42
0.002692
 10
26.229086
 20
11.990724
 42
0.023792
 10
26.420613
 20
11.827679
 42
0.002406
 10
26.39488
 20
11.757533
 42
0.023792
 10
26.143353
 20
11.757028
 42
0.002692
 10
26.115376
 20
11.675529
 42
0.023792
 10
26.313563
 20
11.520648
 42
0.002406
 10
26.290789
 20
11.449486
 42
0.023792
 10
26.039504
 20
11.438448
 42
0.002692
 10
26.014965
 20
11.355849
 42
0.023792
 10
26.219464
 20
11.209403
 42
0.002406
 10
26.19969
 20
11.137349
 42
0.023792
 10
25.949087
 20
11.115798
 42
0.002692
 10
25.928029
 20
11.032244
 42
0.023792
 10
26.13848
 20
10.89449
 42
0.002406
 10
26.121741
 20
10.821672
 42
0.023792
 10
25.872261
 20
10.789646
 42
0.002692
 10
25.854719
 20
10.705283
 42
0.023792
 10
26.070755
 20
10.576463
 42
0.002406
 10
26.05708
 20
10.503008
 42
0.023792
 10
25.80916
 20
10.460562
 42
0.002692
 10
25.795166
 20
10.375539
 42
0.023792
 10
26.016407
 20
10.255879
 42
0.002406
 10
26.00582
 20
10.181915
 42
0.023792
 10
25.759895
 20
10.129125
 42
0.002692
 10
25.749474
 20
10.043591
 42
0.023792
 10
25.975531
 20
9.933299
 42
0.002406
 10
25.968051
 20
9.858957
 42
0.023792
 10
25.724552
 20
9.795915
 42
0.002692
 10
25.717722
 20
9.71002
 42
0.023792
 10
25.9482
 20
9.609292
 42
0.002406
 10
25.943839
 20
9.534701
 42
0.023792
 10
25.703193
 20
9.461518
 42
0.002692
 10
25.699966
 20
9.375412
 42
0.023792
 10
25.93446
 20
9.284423
 42
0.002406
 10
25.933226
 20
9.209716
 42
0.023792
 10
25.695857
 20
9.12652
 42
0.002692
 10
25.696238
 20
9.040354
 42
0.023792
 10
25.934336
 20
8.959265
 42
0.002406
 10
25.936232
 20
8.884571
 42
0.023792
 10
25.702555
 20
8.791508
 42
0.002692
 10
25.706544
 20
8.705433
 42
0.023792
 10
25.947829
 20
8.634386
 42
0.002406
 10
25.952851
 20
8.559838
 42
0.023792
 10
25.723276
 20
8.45707
 42
0.002692
 10
25.730866
 20
8.371239
 42
0.023792
 10
25.974915
 20
8.310358
 42
0.002406
 10
25.983054
 20
8.236085
 42
0.023792
 10
25.757983
 20
8.123794
 42
0.002692
 10
25.769162
 20
8.038355
 42
0.023792
 10
26.015545
 20
7.987747
 42
0.002406
 10
26.026788
 20
7.913881
 42
0.023792
 10
25.806617
 20
7.792264
 42
0.002692
 10
25.821363
 20
7.707368
 42
0.023792
 10
26.06965
 20
7.667122
 42
0.002406
 10
26.083976
 20
7.593791
 42
0.023792
 10
25.86909
 20
7.46306
 42
0.002692
 10
25.887379
 20
7.378857
 42
0.023792
 10
26.137133
 20
7.349043
 42
0.002406
 10
26.154517
 20
7.276376
 42
0.023792
 10
25.945295
 20
7.136762
 42
0.002692
 10
25.967094
 20
7.053398
 42
0.023792
 10
26.217877
 20
7.034069
 42
0.002406
 10
26.238289
 20
6.962194
 42
0.023792
 10
26.035097
 20
6.813941
 42
0.002692
 10
26.060367
 20
6.731563
 42
0.023792
 10
26.31174
 20
6.722753
 42
0.002406
 10
26.335144
 20
6.651795
 42
0.023792
 10
26.138338
 20
6.495164
 42
0.002692
 10
26.167036
 20
6.413916
 42
0.023792
 10
26.418557
 20
6.41564
 42
0.002406
 10
26.444912
 20
6.345725
 42
0.023792
 10
26.254838
 20
6.180989
 42
0.002692
 10
26.286913
 20
6.101015
 42
0.023792
 10
26.538141
 20
6.11327
 42
0.002406
 10
26.5674
 20
6.044519
 42
0.023792
 10
26.384391
 20
5.871969
 42
0.002692
 10
26.419787
 20
5.793408
 42
0.023792
 10
26.670282
 20
5.816172
 42
0.002406
 10
26.702395
 20
5.748708
 42
0.023792
 10
26.526772
 20
5.568645
 42
0.002692
 10
26.565427
 20
5.491635
 42
0.023792
 10
26.814749
 20
5.524869
 42
0.002406
 10
26.849658
 20
5.458808
 42
0.023792
 10
26.68173
 20
5.271549
 42
0.002692
 10
26.723575
 20
5.196225
 42
0.023792
 10
26.971287
 20
5.239871
 42
0.002406
 10
27.008932
 20
5.17533
 42
0.023792
 10
26.848992
 20
4.981203
 42
0.002692
 10
26.893955
 20
4.907697
 42
0.023792
 10
27.139622
 20
4.961678
 42
0.002406
 10
27.179937
 20
4.89877
 42
0.023792
 10
27.028267
 20
4.698115
 42
0.002692
 10
27.076268
 20
4.626557
 42
0.023792
 10
27.319459
 20
4.690778
 42
0.002406
 10
27.362373
 20
4.629613
 42
0.023792
 10
27.219238
 20
4.422784
 42
0.002692
 10
27.270194
 20
4.353298
 42
0.023792
 10
27.510483
 20
4.427647
 42
0.002406
 10
27.55592
 20
4.368333
 42
0.023792
 10
27.421572
 20
4.15569
 42
0.002692
 10
27.475393
 20
4.0884
 42
0.023792
 10
27.712357
 20
4.172745
 42
0.002406
 10
27.760239
 20
4.115386
 42
0.023792
 10
27.634913
 20
3.897304
 42
0.002692
 10
27.691505
 20
3.832327
 42
0.023792
 10
27.924729
 20
3.926521
 42
0.002406
 10
27.974971
 20
3.871217
 42
0.023792
 10
27.858887
 20
3.648079
 42
0.002692
 10
27.91815
 20
3.585528
 42
0.023792
 10
28.147226
 20
3.689406
 42
0.002406
 10
28.199739
 20
3.636255
 42
0.023792
 10
28.093101
 20
3.408451
 42
0.002692
 10
28.154932
 20
3.348437
 42
0.023792
 10
28.379456
 20
3.461816
 42
0.002406
 10
28.434149
 20
3.41091
 42
0.023792
 10
28.337145
 20
3.178841
 42
0.002692
 10
28.401434
 20
3.121469
 42
0.023792
 10
28.621013
 20
3.244151
 42
0.002406
 10
28.67779
 20
3.19558
 42
0.023792
 10
28.590589
 20
2.959652
 42
0.002692
 10
28.657224
 20
2.905022
 42
0.023792
 10
28.871474
 20
3.036792
 42
0.002406
 10
28.930234
 20
2.990641
 42
0.023792
 10
28.852989
 20
2.751269
 42
0.002692
 10
28.921854
 20
2.699477
 42
0.023792
 10
29.130397
 20
2.840103
 42
0.002406
 10
29.191039
 20
2.796453
 42
0.023792
 10
29.123886
 20
2.554056
 42
0.002692
 10
29.194859
 20
2.505193
 42
0.023792
 10
29.397331
 20
2.654429
 42
0.002406
 10
29.459747
 20
2.613357
 42
0.023792
 10
29.402803
 20
2.36836
 42
0.002692
 10
29.47576
 20
2.322513
 42
0.023792
 10
29.671805
 20
2.480096
 42
0.002406
 10
29.735886
 20
2.441674
 42
0.023792
 10
29.689252
 20
2.194507
 42
0.002692
 10
29.764065
 20
2.151755
 42
0.023792
 10
29.953339
 20
2.31741
 42
0.002406
 10
30.018973
 20
2.281705
 42
0.023792
 10
29.98273
 20
2.032802
 42
0.002692
 10
30.059267
 20
1.99322
 42
0.023792
 10
30.241438
 20
2.166655
 42
0.002406
 10
30.30851
 20
2.13373
 42
0.023792
 10
30.282721
 20
1.883529
 42
0.002692
 10
30.360849
 20
1.847186
 42
0.023792
 10
30.535598
 20
2.028098
 42
0.002406
 10
30.60399
 20
1.99801
 42
0.023792
 10
30.588701
 20
1.746948
 42
0.002692
 10
30.668282
 20
1.713909
 42
0.023792
 10
30.835302
 20
1.90198
 42
0.002406
 10
30.904894
 20
1.874783
 42
0.023792
 10
30.900132
 20
1.6233
 42
0.002692
 10
30.981027
 20
1.593623
 42
0.023792
 10
31.140024
 20
1.788523
 42
0.002406
 10
31.210694
 20
1.764264
 42
0.023792
 10
31.216467
 20
1.512803
 42
0.002692
 10
31.298534
 20
1.486539
 42
0.023792
 10
31.44923
 20
1.687926
 42
0.002406
 10
31.520854
 20
1.666647
 42
0.023792
 10
31.537152
 20
1.415649
 42
0.002692
 10
31.620246
 20
1.392845
 42
0.023792
 10
31.762377
 20
1.600365
 42
0.002406
 10
31.834829
 20
1.582105
 42
0.023792
 10
31.861624
 20
1.332009
 42
0.002692
 10
31.9456
 20
1.312704
 42
0.023792
 10
32.078917
 20
1.525995
 42
0.002406
 10
32.15207
 20
1.510784
 42
0.023792
 10
32.189314
 20
1.26203
 42
0.002692
 10
32.274025
 20
1.246259
 42
0.023792
 10
32.398293
 20
1.464945
 42
0.002406
 10
32.472018
 20
1.452811
 42
0.023792
 10
32.519647
 20
1.205834
 42
0.002692
 10
32.604944
 20
1.193624
 42
0.023792
 10
32.719945
 20
1.417322
 42
0.002406
 10
32.794114
 20
1.408287
 42
0.023792
 10
32.852043
 20
1.163521
 42
0.002692
 10
32.937777
 20
1.154894
 42
0.023792
 10
33.04331
 20
1.383211
 42
0.002406
 10
33.117792
 20
1.377289
 42
0.023792
 10
33.18592
 20
1.135164
 42
0.002692
 10
33.27194
 20
1.130135
 42
0.023792
 10
33.367819
 20
1.362671
 42
0.002406
 10
33.442484
 20
1.359873
 42
0.023792
 10
33.520691
 20
1.120813
 42
0.002692
 10
33.606846
 20
1.11939
 42
0.023792
 10
33.692904
 20
1.355738
 42
0.002406
 10
33.76762
 20
1.356069
 42
0.023792
 10
33.855769
 20
1.120494
 42
0.002692
 10
33.941909
 20
1.12268
 42
0.023792
 10
34.017993
 20
1.362424
 42
0.002406
 10
34.092631
 20
1.365884
 42
0.023792
 10
34.190568
 20
1.134206
 42
0.002692
 10
34.27654
 20
1.139998
 42
0.023792
 10
34.342518
 20
1.382718
 42
0.002406
 10
34.416945
 20
1.3893
 42
0.023792
 10
34.524498
 20
1.161927
 42
0.002692
 10
34.610152
 20
1.171313
 42
0.023792
 10
34.665908
 20
1.416583
 42
0.002406
 10
34.739994
 20
1.426276
 42
0.023792
 10
34.856974
 20
1.203607
 42
0.002692
 10
34.94216
 20
1.216572
 42
0.023792
 10
34.987597
 20
1.463961
 42
0.002406
 10
35.061212
 20
1.476748
 42
0.023792
 10
35.187413
 20
1.259172
 42
0.002692
 10
35.271982
 20
1.275693
 42
0.023792
 10
35.307019
 20
1.524768
 42
0.002406
 10
35.380034
 20
1.540627
 42
0.023792
 10
35.515236
 20
1.328527
 42
0.002692
 10
35.599038
 20
1.348575
 42
0.023792
 10
35.623615
 20
1.598898
 42
0.002406
 10
35.695902
 20
1.6178
 42
0.023792
 10
35.839867
 20
1.411548
 42
0.002692
 10
35.922756
 20
1.435088
 42
0.023792
 10
35.936829
 20
1.686221
 42
0.002406
 10
36.008261
 20
1.708134
 42
0.023792
 10
36.160737
 20
1.508091
 42
0.002692
 10
36.242567
 20
1.535081
 42
0.023792
 10
36.246111
 20
1.786583
 42
0.002406
 10
36.316563
 20
1.811468
 42
0.023792
 10
36.477282
 20
1.617985
 42
0.002692
 10
36.557911
 20
1.648378
 42
0.023792
 10
36.550919
 20
1.899808
 42
0.002406
 10
36.620267
 20
1.927621
 42
0.023792
 10
36.788948
 20
1.741039
 42
0.002692
 10
36.868233
 20
1.774782
 42
0.023792
 10
36.850719
 20
2.025699
 42
0.002406
 10
36.918841
 20
2.056391
 42
0.023792
 10
37.095187
 20
1.877036
 42
0.002692
 10
37.17299
 20
1.914069
 42
0.023792
 10
37.144984
 20
2.164033
 42
0.002406
 10
37.211761
 20
2.197551
 42
0.023792
 10
37.395463
 20
2.025738
 42
0.002692
 10
37.471646
 20
2.065996
 42
0.023792
 10
37.433198
 20
2.314568
 42
0.002406
 10
37.498513
 20
2.350853
 42
0.023792
 10
37.689248
 20
2.186883
 42
0.002692
 10
37.763679
 20
2.230297
 42
0.023792
 10
37.714855
 20
2.47704
 42
0.002406
 10
37.778594
 20
2.516029
 42
0.023792
 10
37.976028
 20
2.36019
 42
0.002692
 10
38.048576
 20
2.406682
 42
0.023792
 10
37.989462
 20
2.651165
 42
0.002406
 10
38.051512
 20
2.692788
 42
0.023792
 10
38.255299
 20
2.545353
 42
0.002692
 10
38.325836
 20
2.594843
 42
0.023792
 10
38.256536
 20
2.836636
 42
0.002406
 10
38.316789
 20
2.880821
 42
0.023792
 10
38.526571
 20
2.742049
 42
0.002692
 10
38.594973
 20
2.794449
 42
0.023792
 10
38.515609
 20
3.033128
 42
0.002406
 10
38.573959
 20
3.079797
 42
0.023792
 10
38.789368
 20
2.949932
 42
0.002692
 10
38.855516
 20
3.005151
 42
0.023792
 10
38.766227
 20
3.240296
 42
0.002406
 10
38.822571
 20
3.289369
 42
0.023792
 10
39.043229
 20
3.168638
 42
0.002692
 10
39.107008
 20
3.226578
 42
0.023792
 10
39.00795
 20
3.457778
 42
0.002406
 10
39.062189
 20
3.509167
 42
0.023792
 10
39.28771
 20
3.397782
 42
0.002692
 10
39.349006
 20
3.458342
 42
0.023792
 10
39.240353
 20
3.685192
 42
0.002406
 10
39.292393
 20
3.738806
 42
0.023792
 10
39.52238
 20
3.636963
 42
0.002692
 10
39.581086
 20
3.700037
 42
0.023792
 10
39.46303
 20
3.922137
 42
0.002406
 10
39.512779
 20
3.977884
 42
0.023792
 10
39.746829
 20
3.885761
 42
0.002692
 10
39.802842
 20
3.951238
 42
0.023792
 10
39.675588
 20
4.1682
 42
0.002406
 10
39.722959
 20
4.225981
 42
0.023792
 10
39.960662
 20
4.14374
 42
0.002692
 10
40.013884
 20
4.211505
 42
0.023792
 10
39.877657
 20
4.422948
 42
0.002406
 10
39.922567
 20
4.482662
 42
0.023792
 10
40.163504
 20
4.410447
 42
0.002692
 10
40.213843
 20
4.480381
 42
0.023792
 10
40.06888
 20
4.685934
 42
0.002406
 10
40.11125
 20
4.747477
 42
0.023792
 10
40.355
 20
4.685414
 42
0.002692
 10
40.402366
 20
4.757395
 42
0.023792
 10
40.248923
 20
4.956697
 42
0.002406
 10
40.288679
 20
5.01996
 42
0.023792
 10
40.534814
 20
4.96816
 42
0.002692
 10
40.579124
 20
5.042061
 42
0.023792
 10
40.41747
 20
5.234762
 42
0.002406
 10
40.454541
 20
5.299635
 42
0.023792
 10
40.70263
 20
5.258186
 42
0.002692
 10
40.743806
 20
5.333878
 42
0.023792
 10
40.574224
 20
5.519642
 42
0.002406
 10
40.608547
 20
5.586009
 42
0.023792
 10
40.858154
 20
5.554986
 42
0.002692
 10
40.896124
 20
5.632336
 42
0.023792
 10
40.718912
 20
5.810835
 42
0.002406
 10
40.750425
 20
5.878582
 42
0.023792
 10
41.001112
 20
5.858038
 42
0.002692
 10
41.03581
 20
5.93691
 42
0.023792
 10
40.851279
 20
6.107832
 42
0.002406
 10
40.879927
 20
6.176839
 42
0.023792
 10
41.131255
 20
6.166811
 42
0.002692
 10
41.162619
 20
6.247067
 42
0.023792
 10
40.971092
 20
6.410111
 42
0.002406
 10
40.996826
 20
6.480257
 42
0.023792
 10
41.248353
 20
6.480763
 42
0.002692
 10
41.276329
 20
6.562262
 42
0.023792
 10
41.078143
 20
6.717143
 42
0.002406
 10
41.100917
 20
6.788305
 42
0.023792
 10
41.352202
 20
6.799343
 42
0.002692
 10
41.376741
 20
6.881942
 42
0.023792
 10
41.172242
 20
7.028388
 42
0.002406
 10
41.192016
 20
7.100441
 42
0.023792
 10
41.442618
 20
7.121992
 42
0.002692
 10
41.463677
 20
7.205546
 42
0.023792
 10
41.253226
 20
7.3433
 42
0.002406
 10
41.269965
 20
7.416118
 42
0.023792
 10
41.519445
 20
7.448145
 42
0.002692
 10
41.536986
 20
7.532507
 42
0.023792
 10
41.320951
 20
7.661328
 42
0.002406
 10
41.334626
 20
7.734783
 42
0.023792
 10
41.582546
 20
7.777228
 42
0.002692
 10
41.596539
 20
7.862251
 42
0.023792
 10
41.375299
 20
7.981912
 42
0.002406
 10
41.385886
 20
8.055876
 42
0.023792
 10
41.631811
 20
8.108666
 42
0.002692
 10
41.642232
 20
8.1942
 42
0.023792
 10
41.416174
 20
8.304491
 42
0.002406
 10
41.423655
 20
8.378833
 42
0.023792
 10
41.667154
 20
8.441875
 42
0.002692
 10
41.673984
 20
8.527771
 42
0.023792
 10
41.443506
 20
8.628499
 42
0.002406
 10
41.447867
 20
8.703089
 42
0.023792
 10
41.688513
 20
8.776273
 42
0.002692
 10
41.691739
 20
8.862379
 42
0.023792
 10
41.457246
 20
8.953367
 42
0.002406
 10
41.458479
 20
9.028075
 42
0.023792
 10
41.695849
 20
9.111271
 42
0.002692
 10
41.695467
 20
9.197437
 42
0.023792
 10
41.457369
 20
9.278526
 42
0.002406
 10
41.455474
 20
9.353219
 42
0.023792
 10
41.689151
 20
9.446283
 42
0.002692
 10
41.685161
 20
9.532357
 42
0.023792
 10
41.443877
 20
9.603404
 42
0.002406
 10
41.438855
 20
9.677953
 42
0.023792
 10
41.66843
 20
9.78072
 42
0.002692
 10
41.660839
 20
9.866552
 42
0.023792
 10
41.416791
 20
9.927433
 42
0.002406
 10
41.408652
 20
10.001706
 42
0.023792
 10
41.633722
 20
10.113996
 42
0.002692
 10
41.622544
 20
10.199435
 42
0.023792
 10
41.37616
 20
10.250043
 42
0.002406
 10
41.364918
 20
10.32391
 42
0.023792
 10
41.585089
 20
10.445527
 42
0.002692
 10
41.570343
 20
10.530423
 42
0.023792
 10
41.322056
 20
10.570669
 42
0.002406
 10
41.30773
 20
10.644
 42
0.023792
 10
41.522615
 20
10.77473
 42
0.002692
 10
41.504327
 20
10.858934
 42
0.023792
 10
41.254572
 20
10.888748
 42
0.002406
 10
41.237189
 20
10.961415
 42
0.023792
 10
41.446411
 20
11.101029
 42
0.002692
 10
41.424612
 20
11.184393
 42
0.023792
 10
41.173828
 20
11.203721
 42
0.002406
 10
41.153417
 20
11.275597
 42
0.023792
 10
41.356609
 20
11.42385
 42
0.002692
 10
41.331339
 20
11.506228
 42
0.023792
 10
41.079966
 20
11.515038
 42
0.002406
 10
41.056562
 20
11.585995
 42
0.023792
 10
41.253368
 20
11.742627
 42
0.002692
 10
41.22467
 20
11.823875
 42
0.023792
 10
40.973148
 20
11.822151
 42
0.002406
 10
40.946794
 20
11.892066
 42
0.023792
 10
41.136868
 20
12.056801
 42
0.002692
 10
41.104793
 20
12.136776
 42
0.023792
 10
40.853564
 20
12.124521
 42
0.002406
 10
40.824305
 20
12.193271
 42
0.023792
 10
41.007314
 20
12.365822
 42
0.002692
 10
40.971919
 20
12.444383
 42
0.023792
 10
40.721423
 20
12.421618
 42
0.002406
 10
40.689311
 20
12.489083
 42
0.023792
 10
40.864934
 20
12.669146
 42
0.002692
 10
40.826279
 20
12.746156
 42
0.023792
 10
40.576957
 20
12.712922
 42
0.002406
 10
40.542048
 20
12.778982
 42
0.023792
 10
40.709976
 20
12.966242
 42
0.002692
 10
40.668131
 20
13.041566
 42
0.023792
 10
40.420419
 20
12.99792
 42
0.002406
 10
40.382774
 20
13.062461
 42
0.023792
 10
40.542713
 20
13.256588
 42
0.002692
 10
40.49775
 20
13.330093
 42
0.023792
 10
40.252084
 20
13.276113
 42
0.002406
 10
40.211769
 20
13.339021
 42
0.023792
 10
40.363439
 20
13.539675
 42
0.002692
 10
40.315437
 20
13.611233
 42
0.023792
 10
40.072247
 20
13.547013
 42
0.002406
 10
40.029333
 20
13.608177
 42
0.023792
 10
40.172467
 20
13.815007
 42
0.002692
 10
40.121511
 20
13.884492
 42
0.023792
 10
39.881223
 20
13.810144
 42
0.002406
 10
39.835786
 20
13.869458
 42
0.023792
 10
39.970133
 20
14.0821
 42
0.002692
 10
39.916312
 20
14.149391
 42
0.023792
 10
39.679348
 20
14.065045
 42
0.002406
 10
39.631467
 20
14.122405
 42
0.023792
 10
39.756792
 20
14.340486
 42
0.002692
 10
39.700201
 20
14.405464
 42
0.023792
 10
39.466977
 20
14.31127
 42
0.002406
 10
39.416735
 20
14.366573
 42
0.023792
 10
39.532818
 20
14.589712
 42
0.002692
 10
39.473555
 20
14.652263
 42
0.023792
 10
39.24448
 20
14.548385
 42
0.002406
 10
39.191967
 20
14.601536
 42
0.023792
 10
39.298604
 20
14.82934
 42
0.002692
 10
39.236774
 20
14.889354
 42
0.023792
 10
39.01225
 20
14.775974
 42
0.002406
 10
38.957557
 20
14.82688
 42
0.023792
 10
39.054561
 20
15.058949
 42
0.002692
 10
38.990272
 20
15.116322
 42
0.023792
 10
38.770692
 20
14.99364
 42
0.002406
 10
38.713916
 20
15.042211
 42
0.023792
 10
38.801117
 20
15.278138
 42
0.002692
 10
38.734482
 20
15.332769
 42
0.023792
 10
38.520232
 20
15.200999
 42
0.002406
 10
38.461471
 20
15.24715
 42
0.023792
 10
38.538717
 20
15.486522
 42
0.002692
 10
38.469852
 20
15.538314
 42
0.023792
 10
38.261308
 20
15.397688
 42
0.002406
 10
38.200667
 20
15.441337
 42
0.023792
 10
38.26782
 20
15.683735
 42
0.002692
 10
38.196847
 20
15.732597
 42
0.023792
 10
37.994375
 20
15.583362
 42
0.002406
 10
37.931959
 20
15.624434
 42
0.023792
 10
37.988903
 20
15.86943
 42
0.002692
 10
37.915946
 20
15.915278
 42
0.023792
 10
37.719901
 20
15.757695
 42
0.002406
 10
37.655819
 20
15.796117
 42
0.023792
 10
37.702454
 20
16.043283
 42
0.002692
 10
37.627641
 20
16.086035
 42
0.023792
 10
37.438367
 20
15.920381
 42
0.002406
 10
37.372733
 20
15.956086
 42
0.023792
 10
37.408976
 20
16.204988
 42
0.002692
 10
37.332439
 20
16.24457
 42
0.023792
 10
37.150267
 20
16.071135
 42
0.002406
 10
37.083196
 20
16.10406
 42
0.023792
 10
37.108984
 20
16.354262
 42
0.002692
 10
37.030856
 20
16.390604
 42
0.023792
 10
36.856108
 20
16.209693
 42
0.002406
 10
36.787716
 20
16.23978
 42
0.023792
 10
36.803005
 20
16.490843
 42
0.002692
 10
36.723423
 20
16.523881
 42
0.023792
 10
36.556404
 20
16.335811
 42
0.002406
 10
36.486812
 20
16.363008
 42
0.023792
 10
36.491574
 20
16.61449
 42
0.002692
 10
36.410679
 20
16.644167
 42
0.023792
 10
36.251682
 20
16.449268
 42
0.002406
 10
36.181012
 20
16.473527
 42
0.023792
 10
36.175239
 20
16.724988
 42
0.002692
 10
36.093172
 20
16.751251
 42
0.023792
 10
35.942476
 20
16.549865
 42
0.002406
 10
35.870852
 20
16.571143
 42
0.023792
 10
35.854554
 20
16.822142
 42
0.002692
 10
35.771459
 20
16.844946
 42
0.023792
 10
35.629328
 20
16.637425
 42
0.002406
 10
35.556877
 20
16.655686
 42
0.023792
 10
35.530082
 20
16.905782
 42
0.002692
 10
35.446105
 20
16.925086
 42
0.023792
 10
35.312789
 20
16.711796
 42
0.002406
 10
35.239636
 20
16.727006
 42
0.023792
 10
35.202392
 20
16.975761
 42
0.002692
 10
35.117681
 20
16.991532
 42
0.023792
 10
34.993413
 20
16.772846
 42
0.002406
 10
34.919687
 20
16.78498
 42
0.023792
 10
34.872059
 20
17.031957
 42
0.002692
 10
34.786762
 20
17.044166
 42
0.023792
 10
34.671761
 20
16.820468
 42
0.002406
 10
34.597592
 20
16.829504
 42
0.023792
 10
34.539663
 20
17.07427
 42
0.002692
 10
34.453929
 20
17.082897
 42
0.023792
 10
34.348396
 20
16.854579
 42
0.002406
 10
34.273914
 20
16.860501
 42
0.023792
 10
34.205786
 20
17.102627
 42
0.002692
 10
34.119766
 20
17.107656
 42
0.023792
 10
34.023887
 20
16.875119
 42
0.002406
 10
33.949222
 20
16.877917
 42
0.023792
 10
33.871015
 20
17.116977
 42
0.002693
  0
LWPOLYLINE
  5
30
100
AcDbEntity
  8
0
100
AcDbPolyline
 90
        7
 70
         129
 10
38.062316
 20
3.24237
 42
-0.42899
 10
37.870305
 20
3.268915
 42
-0.42899
 10
37.906448
 20
3.459353
 42
0.15942
 10
40.437336
 20
7.042377
 42
-0.428165
 10
40.604379
 20
7.140203
 42
-0.428165
 10
40.694181
 20
6.968713
 42
-0.160036
 10
38.055974
 20
3.237634
  0
LWPOLYLINE
  5
31
100
AcDbEntity
  8
0
100
AcDbPolyline
 90
        7
 70
         129
 10
40.634071
 20
11.455702
 42
-0.42899
 10
40.549491
 20
11.281292
 42
-0.42899
 10
40.379543
 20
11.374514
 42
0.15942
 10
37.753972
 20
14.888748
 42
-0.428165
 10
37.712553
 20
15.077845
 42
-0.428165
 10
37.9034
 20
15.110258
 42
-0.160036
 10
40.636616
 20
11.448207
  0
LWPOLYLINE
  5
32
100
AcDbEntity
  8
0
100
AcDbPolyline
 90
        7
 70
         129
 10
33.617445
 20
16.439646
 42
-0.42899
 10
33.757182
 20
16.30531
 42
-0.42899
 10
33.616006
 20
16.172487
 42
0.15942
 10
29.462425
 20
14.761379
 42
-0.428165
 10
29.269784
 20
14.780421
 42
-0.428165
 10
29.297932
 20
14.971944
 42
-0.160036
 10
33.625359
 20
16.43975
  0
LWPOLYLINE
  5
33
100
AcDbEntity
  8
0
100
AcDbPolyline
 90
        7
 70
         129
 10
26.709176
 20
11.306561
 42
-0.42899
 10
26.880118
 20
11.397947
 42
-0.42899
 10
26.962814
 20
11.222636
 42
0.15942
 10
27.021331
 20
6.836289
 42
-0.428165
 10
26.943691
 20
6.658961
 42
-0.428165
 10
26.770241
 20
6.744915
 42
-0.160036
 10
26.711522
 20
11.31412
  0
LWPOLYLINE
  5
34
100
AcDbEntity
  8
0
100
AcDbPolyline
 90
       20
 70
         129
 10
31.061821
 20
3.040039
 42
-0.27331
 10
27.100556
 20
8.492252
 42
-0.294842
 10
27.256745
 20
8.793213
 42
0.580651
 10
27.256745
 20
9.444578
 42
-0.294842
 10
27.100556
 20
9.745539
 42
-0.27331
 10
31.061821
 20
15.197752
 42
-0.294842
 10
31.396316
 20
15.142209
 42
0.580651
 10
32.015802
 20
15.343492
 42
-0.294842
 10
32.253767
 20
15.585039
 42
-0.27331
 10
38.663228
 20
13.502479
 42
-0.294842
 10
38.713769
 20
13.167191
 42
0.580651
 10
39.096632
 20
12.640225
 42
-0.294842
 10
39.399892
 20
12.488548
 42
-0.27331
 10
39.399892
 20
5.749242
 42
-0.294842
 10
39.096632
 20
5.597565
 42
0.580651
 10
38.713769
 20
5.0706
 42
-0.294842
 10
38.663228
 20
4.735312
 42
-0.27331
 10
32.253767
 20
2.652752
 42
-0.294842
 10
32.015802
 20
2.894298
 42
0.580651
 10
31.396316
 20
3.095581
 42
-0.294842
  0
LWPOLYLINE
  5
35
100
AcDbEntity
  8
0
100
AcDbPolyline
 90
        4
 70
         129
 10
31.648615
 20
15.513395
 42
-0.414214
 10
31.742365
 20
15.419645
 42
-0.414214
 10
31.648615
 20
15.325895
 42
-0.414214
 10
31.554865
 20
15.419645
 42
-0.414214
  0
LWPOLYLINE
  5
36
100
AcDbEntity
  8
0
100
AcDbPolyline
 90
        4
 70
         129
 10
39.05559
 20
13.106723
 42
-0.414214
 10
39.14934
 20
13.012973
 42
-0.414214
 10
39.05559
 20
12.919223
 42
-0.414214
 10
38.96184
 20
13.012973
 42
-0.414214
  0
LWPOLYLINE
  5
37
100
AcDbEntity
  8
0
100
AcDbPolyline
 90
        4
 70
         129
 10
39.05559
 20
5.318568
 42
-0.414214
 10
39.14934
 20
5.224818
 42
-0.414214
 10
39.05559
 20
5.131068
 42
-0.414214
 10
38.96184
 20
5.224818
 42
-0.414214
  0
LWPOLYLINE
  5
38
100
AcDbEntity
  8
0
100
AcDbPolyline
 90
        4
 70
         129
 10
31.648615
 20
2.911896
 42
-0.414214
 10
31.742365
 20
2.818146
 42
-0.414214
 10
31.648615
 20
2.724396
 42
-0.414214
 10
31.554865
 20
2.818146
 42
-0.414214
  0
LWPOLYLINE
  5
39
100
AcDbEntity
  8
0
100
AcDbPolyline
 90
        7
 70
         129
 10
29.456257
 20
3.150196
 42
-0.42899
 10
29.422168
 20
3.341012
 42
-0.42899
 10
29.614454
 20
3.365487
 42
0.15942
 10
33.804199
 20
2.065684
 42
-0.428165
 10
33.948857
 20
1.937047
 42
-0.428165
 10
33.81351
 20
1.798647
 42
-0.160036
 10
29.449793
 20
3.154764
  0
LWPOLYLINE
  5
3A
100
AcDbEntity
  8
0
100
AcDbPolyline
 90
        4
 70
         129
 10
27.070853
 20
9.212645
 42
-0.414214
 10
27.164603
 20
9.118895
 42
-0.414214
 10
27.070853
 20
9.025145
 42
-0.414214
 10
26.977103
 20
9.118895
 42
-0.414214
  0
LWPOLYLINE
  5
3B
100
AcDbEntity
  8
0
100
AcDbPolyline
 90
      240
 70
         129
 10
2.92388
 20
14.785512
 42
0.098042
 10
2.834762
 20
14.558194
 10
2.834419
 20
14.553588
 42
0.012144
 10
2.738569
 20
14.555192
 10
2.73838
 20
14.559807
 42
0.098042
 10
2.656921
 20
14.789982
 42
0.009056
 10
2.577008
 20
14.785037
 42
0.098042
 10
2.524548
 20
14.546576
 10
2.52493
 20
14.541973
 42
0.012144
 10
2.430009
 20
14.528564
 10
2.429101
 20
14.533092
 42
0.098042
 10
2.312637
 20
14.747689
 42
0.009056
 10
2.234482
 20
14.730304
 42
0.098042
 10
2.219971
 20
14.486573
 10
2.221068
 20
14.482086
 42
0.012144
 10
2.129413
 20
14.453993
 10
2.127808
 20
14.458324
 42
0.098042
 10
1.979208
 20
14.65206
 42
0.009056
 10
1.904735
 20
14.622663
 42
0.098042
 10
1.92853
 20
14.379662
 10
1.930315
 20
14.375402
 42
0.012144
 10
1.844184
 20
14.333317
 10
1.841921
 20
14.337343
 42
0.098042
 10
1.664844
 20
14.505448
 42
0.009056
 10
1.595886
 20
14.464763
 42
0.098042
 10
1.657402
 20
14.228476
 10
1.659832
 20
14.224548
 42
0.012144
 10
1.581344
 20
14.169507
 10
1.578479
 20
14.17313
 42
0.098042
 10
1.377285
 20
14.311464
 42
0.009056
 10
1.31554
 20
14.260492
 42
0.098042
 10
1.413263
 20
14.036738
 10
1.416277
 20
14.033238
 42
0.012144
 10
1.347366
 20
13.966597
 10
1.34397
 20
13.969727
 42
0.098042
 10
1.123612
 20
14.074884
 42
0.009056
 10
1.070601
 20
14.014881
 42
0.098042
 10
1.202124
 20
13.809168
 10
1.205648
 20
13.806183
 42
0.012144
 10
1.148011
 20
13.729582
 10
1.144166
 20
13.732142
 42
0.098042
 10
0.910071
 20
13.801534
 42
0.009056
 10
0.8671
 20
13.733976
 42
0.098042
 10
1.029184
 20
13.551371
 10
1.033132
 20
13.548974
 42
0.012144
 10
0.988187
 20
13.4643
 10
0.98399
 20
13.466227
 42
0.098042
 10
0.741921
 20
13.498143
 42
0.009056
 10
0.710048
 20
13.424696
 42
0.098042
 10
0.898701
 20
13.269694
 10
0.902976
 20
13.267944
 42
0.012144
 10
0.87183
 20
13.177282
 10
0.867383
 20
13.178528
 42
0.098042
 10
0.623302
 20
13.172184
 42
0.009056
 10
0.603311
 20
13.094654
 42
0.098042
 10
0.813889
 20
12.971073
 10
0.818385
 20
12.970014
 42
0.012144
 10
0.801806
 20
12.875595
 10
0.797218
 20
12.87613
 42
0.098042
 10
0.557135
 20
12.831682
 42
0.009056
 10
0.549518
 20
12.751979
 42
0.098042
 10
0.776836
 20
12.662861
 10
0.781442
 20
12.662518
 42
0.012144
 10
0.779837
 20
12.566668
 10
0.775223
 20
12.566479
 42
0.098042
 10
0.545048
 20
12.48502
 42
0.009056
 10
0.549993
 20
12.405108
 42
0.098042
 10
0.788454
 20
12.352647
 10
0.793057
 20
12.353029
 42
0.012144
 10
0.806466
 20
12.258108
 10
0.801938
 20
12.2572
 42
0.098042
 10
0.58734
 20
12.140736
 42
0.009056
 10
0.604725
 20
12.062581
 42
0.098042
 10
0.848457
 20
12.04807
 10
0.852944
 20
12.049167
 42
0.012144
 10
0.881037
 20
11.957513
 10
0.876706
 20
11.955907
 42
0.098042
 10
0.68297
 20
11.807307
 42
0.009056
 10
0.712367
 20
11.732834
 42
0.098042
 10
0.955368
 20
11.756629
 10
0.959628
 20
11.758415
 42
0.012144
 10
1.001713
 20
11.672283
 10
0.997687
 20
11.67002
 42
0.098042
 10
0.829581
 20
11.492943
 42
0.009056
 10
0.870267
 20
11.423985
 42
0.098042
 10
1.106554
 20
11.485501
 10
1.110482
 20
11.487931
 42
0.012144
 10
1.165523
 20
11.409444
 10
1.1619
 20
11.406578
 42
0.098042
 10
1.023566
 20
11.205384
 42
0.009056
 10
1.074538
 20
11.143639
 42
0.098042
 10
1.298292
 20
11.241362
 10
1.301792
 20
11.244376
 42
0.012144
 10
1.368433
 20
11.175465
 10
1.365303
 20
11.172069
 42
0.098042
 10
1.260146
 20
10.951711
 42
0.009056
 10
1.320149
 20
10.898701
 42
0.098042
 10
1.525862
 20
11.030223
 10
1.528846
 20
11.033747
 42
0.012144
 10
1.605447
 20
10.97611
 10
1.602888
 20
10.972266
 42
0.098042
 10
1.533496
 20
10.73817
 42
0.009056
 10
1.601053
 20
10.695199
 42
0.098042
 10
1.783659
 20
10.857283
 10
1.786055
 20
10.861231
 42
0.012144
 10
1.87073
 20
10.816286
 10
1.868803
 20
10.812089
 42
0.098042
 10
1.836886
 20
10.57002
 42
0.009056
 10
1.910334
 20
10.538147
 42
0.098042
 10
2.065336
 20
10.7268
 10
2.067085
 20
10.731075
 42
0.012144
 10
2.157748
 20
10.699929
 10
2.156502
 20
10.695482
 42
0.098042
 10
2.162846
 20
10.451401
 42
0.009056
 10
2.240375
 20
10.43141
 42
0.098042
 10
2.363957
 20
10.641989
 10
2.365016
 20
10.646484
 42
0.012144
 10
2.459435
 20
10.629905
 10
2.458899
 20
10.625317
 42
0.098042
 10
2.503348
 20
10.385234
 42
0.009056
 10
2.583051
 20
10.377617
 42
0.098042
 10
2.672169
 20
10.604935
 10
2.672512
 20
10.609541
 42
0.012144
 10
2.768362
 20
10.607937
 10
2.76855
 20
10.603322
 42
0.098042
 10
2.850009
 20
10.373147
 42
0.009056
 10
2.929922
 20
10.378092
 42
0.098042
 10
2.982383
 20
10.616553
 10
2.982001
 20
10.621156
 42
0.012144
 10
3.076922
 20
10.634565
 10
3.07783
 20
10.630037
 42
0.098042
 10
3.194293
 20
10.41544
 42
0.009056
 10
3.272449
 20
10.432825
 42
0.098042
 10
3.28696
 20
10.676556
 10
3.285863
 20
10.681043
 42
0.012144
 10
3.377517
 20
10.709136
 10
3.379123
 20
10.704805
 42
0.098042
 10
3.527723
 20
10.511069
 42
0.009056
 10
3.602196
 20
10.540466
 42
0.098042
 10
3.578401
 20
10.783467
 10
3.576615
 20
10.787727
 42
0.012144
 10
3.662747
 20
10.829812
 10
3.66501
 20
10.825786
 42
0.098042
 10
3.842087
 20
10.657681
 42
0.009056
 10
3.911045
 20
10.698366
 42
0.098042
 10
3.849529
 20
10.934653
 10
3.847099
 20
10.938581
 42
0.012144
 10
3.925586
 20
10.993622
 10
3.928451
 20
10.989999
 42
0.098042
 10
4.129646
 20
10.851665
 42
0.009056
 10
4.19139
 20
10.902637
 42
0.098042
 10
4.093668
 20
11.126391
 10
4.090654
 20
11.129891
 42
0.012144
 10
4.159564
 20
11.196532
 10
4.162961
 20
11.193402
 42
0.098042
 10
4.383319
 20
11.088245
 42
0.009056
 10
4.436329
 20
11.148248
 42
0.098042
 10
4.304807
 20
11.353961
 10
4.301282
 20
11.356946
 42
0.012144
 10
4.35892
 20
11.433547
 10
4.362764
 20
11.430987
 42
0.098042
 10
4.596859
 20
11.361595
 42
0.009056
 10
4.63983
 20
11.429153
 42
0.098042
 10
4.477747
 20
11.611758
 10
4.473799
 20
11.614155
 42
0.012144
 10
4.518744
 20
11.698829
 10
4.522941
 20
11.696902
 42
0.098042
 10
4.765009
 20
11.664986
 42
0.009056
 10
4.796883
 20
11.738433
 42
0.098042
 10
4.608229
 20
11.893435
 10
4.603955
 20
11.895185
 42
0.012144
 10
4.6351
 20
11.985847
 10
4.639548
 20
11.984601
 42
0.098042
 10
4.883629
 20
11.990945
 42
0.009056
 10
4.90362
 20
12.068475
 42
0.098042
 10
4.693041
 20
12.192056
 10
4.688546
 20
12.193115
 42
0.012144
 10
4.705125
 20
12.287534
 10
4.709712
 20
12.286999
 42
0.098042
 10
4.949796
 20
12.331447
 42
0.009056
 10
4.957413
 20
12.41115
 42
0.098042
 10
4.730094
 20
12.500268
 10
4.725489
 20
12.500611
 42
0.012144
 10
4.727093
 20
12.596461
 10
4.731708
 20
12.59665
 42
0.098042
 10
4.961882
 20
12.678109
 42
0.009056
 10
4.956937
 20
12.758021
 42
0.098042
 10
4.718476
 20
12.810482
 10
4.713874
 20
12.8101
 42
0.012144
 10
4.700464
 20
12.905021
 10
4.704993
 20
12.905929
 42
0.098042
 10
4.91959
 20
13.022393
 42
0.009056
 10
4.902205
 20
13.100548
 42
0.098042
 10
4.658473
 20
13.115059
 10
4.653987
 20
13.113962
 42
0.012144
 10
4.625894
 20
13.205617
 10
4.630224
 20
13.207222
 42
0.098042
 10
4.823961
 20
13.355822
 42
0.009056
 10
4.794564
 20
13.430295
 42
0.098042
 10
4.551563
 20
13.4065
 10
4.547303
 20
13.404714
 42
0.012144
 10
4.505218
 20
13.490846
 10
4.509244
 20
13.493109
 42
0.098042
 10
4.677349
 20
13.670186
 42
0.009056
 10
4.636664
 20
13.739144
 42
0.098042
 10
4.400377
 20
13.677628
 10
4.396449
 20
13.675198
 42
0.012144
 10
4.341408
 20
13.753685
 10
4.34503
 20
13.756551
 42
0.098042
 10
4.483365
 20
13.957745
 42
0.009056
 10
4.432393
 20
14.01949
 42
0.098042
 10
4.208638
 20
13.921767
 10
4.205139
 20
13.918753
 42
0.012144
 10
4.138498
 20
13.987664
 10
4.141627
 20
13.99106
 42
0.098042
 10
4.246785
 20
14.211418
 42
0.009056
 10
4.186782
 20
14.264428
 42
0.098042
 10
3.981069
 20
14.132906
 10
3.978084
 20
14.129382
 42
0.012144
 10
3.901483
 20
14.187019
 10
3.904043
 20
14.190863
 42
0.098042
 10
3.973434
 20
14.424959
 42
0.009056
 10
3.905877
 20
14.46793
 42
0.098042
 10
3.723272
 20
14.305846
 10
3.720875
 20
14.301898
 42
0.012144
 10
3.636201
 20
14.346843
 10
3.638128
 20
14.35104
 42
0.098042
 10
3.670044
 20
14.593109
 42
0.009056
 10
3.596597
 20
14.624982
 42
0.098042
 10
3.441595
 20
14.436329
 10
3.439845
 20
14.432054
 42
0.012144
 10
3.349183
 20
14.4632
 10
3.350429
 20
14.467647
 42
0.098042
 10
3.344085
 20
14.711728
 42
0.009056
 10
3.266555
 20
14.731719
 42
0.098042
 10
3.142974
 20
14.521141
 10
3.141914
 20
14.516645
 42
0.012144
 10
3.047496
 20
14.533224
 10
3.048031
 20
14.537812
 42
0.098042
 10
3.003582
 20
14.777895
 42
0.009056
  0
LWPOLYLINE
  5
3C
100
AcDbEntity
  8
0
100
AcDbPolyline
 90
        4
 70
         129
 10
1.179163
 20
12.581565
 42
0.414214
 10
1.274163
 20
12.486565
 42
0.414214
 10
1.369163
 20
12.581565
 42
0.414214
 10
1.274163
 20
12.676565
 42
0.414214
  0
LWPOLYLINE
  5
3D
100
AcDbEntity
  8
0
100
AcDbPolyline
 90
        4
 70
         129
 10
4.327846
 20
12.581565
 42
-0.414214
 10
4.232846
 20
12.486565
 42
-0.414214
 10
4.137846
 20
12.581565
 42
-0.414214
 10
4.232846
 20
12.676565
 42
-0.414214
  0
LWPOLYLINE
  5
3E
100
AcDbEntity
  8
0
100
AcDbPolyline
 90
        4
 70
         129
 10
2.753465
 20
12.675315
 42
-0.414214
 10
2.847215
 20
12.581565
 42
-0.414214
 10
2.753465
 20
12.487815
 42
-0.414214
 10
2.659715
 20
12.581565
 42
-0.414214
  0
LWPOLYLINE
  5
3F
100
AcDbEntity
  8
0
100
AcDbPolyline
 90
      358
 70
         129
 10
4.03502
 20
8.199617
 10
4.086856
 20
8.199239
 10
4.13851
 20
8.198111
 10
4.189977
 20
8.196238
 10
4.241252
 20
8.193624
 10
4.292329
 20
8.190274
 10
4.343203
 20
8.186194
 10
4.39387
 20
8.18139
 10
4.444324
 20
8.175865
 10
4.494559
 20
8.169626
 10
4.54457
 20
8.162677
 10
4.594353
 20
8.155024
 10
4.643902
 20
8.146672
 10
4.693212
 20
8.137625
 10
4.742277
 20
8.12789
 10
4.791092
 20
8.117471
 10
4.839652
 20
8.106373
 10
4.887953
 20
8.094602
 10
4.935988
 20
8.082163
 10
4.983752
 20
8.069061
 10
5.031241
 20
8.055301
 10
5.078448
 20
8.040888
 10
5.125369
 20
8.025827
 10
5.171999
 20
8.010125
 10
5.218332
 20
7.993784
 10
5.264363
 20
7.976812
 10
5.310087
 20
7.959213
 10
5.355499
 20
7.940992
 10
5.400593
 20
7.922155
 10
5.445364
 20
7.902706
 10
5.489807
 20
7.882651
 10
5.533917
 20
7.861994
 10
5.577689
 20
7.840742
 42
0.057906
 10
5.565006
 20
7.733005
 42
0.414214
 10
6.035006
 20
7.263005
 42
0.159341
 10
6.312565
 20
7.353961
 10
6.347166
 20
7.32374
 10
6.381364
 20
7.293073
 10
6.415154
 20
7.261965
 10
6.448531
 20
7.23042
 10
6.481491
 20
7.198443
 10
6.514029
 20
7.166039
 10
6.54614
 20
7.133211
 10
6.577821
 20
7.099965
 10
6.609067
 20
7.066305
 10
6.639873
 20
7.032235
 10
6.670234
 20
6.99776
 10
6.700147
 20
6.962884
 10
6.729606
 20
6.927613
 10
6.758608
 20
6.89195
 10
6.787147
 20
6.855901
 10
6.815219
 20
6.819468
 10
6.842819
 20
6.782658
 10
6.869944
 20
6.745475
 10
6.896588
 20
6.707923
 10
6.922747
 20
6.670006
 10
6.948417
 20
6.63173
 10
6.973592
 20
6.593098
 10
6.998269
 20
6.554115
 10
7.022443
 20
6.514787
 10
7.046109
 20
6.475116
 10
7.069263
 20
6.435109
 10
7.0919
 20
6.394769
 10
7.114017
 20
6.3541
 10
7.135607
 20
6.313108
 10
7.156667
 20
6.271797
 10
7.177193
 20
6.230172
 10
7.197179
 20
6.188236
 10
7.216622
 20
6.145995
 10
7.235516
 20
6.103453
 10
7.253857
 20
6.060614
 10
7.271641
 20
6.017484
 10
7.288864
 20
5.974066
 10
7.30552
 20
5.930365
 10
7.321604
 20
5.886385
 10
7.337114
 20
5.842132
 10
7.352044
 20
5.79761
 10
7.366389
 20
5.752822
 10
7.380145
 20
5.707775
 10
7.393307
 20
5.662471
 10
7.405872
 20
5.616917
 10
7.417834
 20
5.571115
 10
7.429189
 20
5.525072
 10
7.439933
 20
5.478791
 10
7.45006
 20
5.432276
 10
7.459567
 20
5.385533
 10
7.468448
 20
5.338566
 10
7.4767
 20
5.29138
 10
7.484318
 20
5.243978
 10
7.491297
 20
5.196366
 10
7.497633
 20
5.148547
 10
7.503321
 20
5.100527
 10
7.508357
 20
5.052311
 10
7.512736
 20
5.003902
 10
7.516453
 20
4.955304
 10
7.519505
 20
4.906524
 10
7.521887
 20
4.857564
 10
7.523594
 20
4.808431
 10
7.524621
 20
4.759127
 10
7.524965
 20
4.709658
 10
7.524965
 20
4.709603
 10
7.524397
 20
4.64612
 10
7.522702
 20
4.582913
 10
7.519885
 20
4.519991
 10
7.515953
 20
4.457364
 10
7.510913
 20
4.395042
 10
7.50477
 20
4.333035
 10
7.497533
 20
4.271353
 10
7.489207
 20
4.210006
 42
0.389951
 10
7.058412
 20
3.741816
 42
0.241567
 10
7.254325
 20
3.36007
 10
7.232652
 20
3.309548
 10
7.210211
 20
3.259439
 10
7.187008
 20
3.209752
 10
7.163052
 20
3.160493
 10
7.138349
 20
3.11167
 10
7.112908
 20
3.06329
 10
7.086735
 20
3.015361
 10
7.059838
 20
2.96789
 10
7.032225
 20
2.920885
 10
7.003902
 20
2.874352
 10
6.974878
 20
2.8283
 10
6.945159
 20
2.782736
 10
6.914753
 20
2.737667
 10
6.883668
 20
2.693101
 10
6.851911
 20
2.649045
 10
6.81949
 20
2.605506
 10
6.786411
 20
2.562492
 10
6.752682
 20
2.520011
 10
6.718311
 20
2.478069
 10
6.683305
 20
2.436675
 10
6.647672
 20
2.395835
 10
6.611419
 20
2.355558
 10
6.574553
 20
2.31585
 10
6.537081
 20
2.276719
 10
6.499012
 20
2.238172
 10
6.460353
 20
2.200217
 10
6.421111
 20
2.162861
 10
6.381293
 20
2.126112
 10
6.340907
 20
2.089977
 10
6.299961
 20
2.054463
 10
6.258461
 20
2.019578
 10
6.216416
 20
1.98533
 10
6.173832
 20
1.951725
 10
6.130717
 20
1.918771
 10
6.087079
 20
1.886477
 10
6.042925
 20
1.854848
 10
5.998262
 20
1.823892
 10
5.953098
 20
1.793618
 10
5.90744
 20
1.764031
 10
5.861295
 20
1.735141
 10
5.814672
 20
1.706953
 10
5.767577
 20
1.679477
 10
5.720018
 20
1.652718
 10
5.672002
 20
1.626684
 10
5.623537
 20
1.601384
 10
5.574631
 20
1.576824
 10
5.52529
 20
1.553011
 10
5.475521
 20
1.529954
 10
5.425334
 20
1.507659
 10
5.374734
 20
1.486134
 10
5.32373
 20
1.465386
 10
5.272328
 20
1.445424
 10
5.220536
 20
1.426253
 10
5.168362
 20
1.407882
 10
5.115813
 20
1.390319
 10
5.062897
 20
1.37357
 10
5.00962
 20
1.357642
 10
4.955991
 20
1.342545
 10
4.902016
 20
1.328284
 10
4.847704
 20
1.314867
 10
4.793061
 20
1.302302
 10
4.738095
 20
1.290596
 10
4.682813
 20
1.279756
 10
4.627224
 20
1.269791
 42
0.30216
 10
4.194048
 20
1.558151
 42
0.32601
 10
3.746661
 20
1.231567
 10
3.689727
 20
1.236685
 10
3.633059
 20
1.24271
 10
3.576665
 20
1.249637
 10
3.520553
 20
1.257456
 10
3.464729
 20
1.266162
 10
3.409201
 20
1.275747
 10
3.353976
 20
1.286202
 10
3.299062
 20
1.297522
 10
3.244466
 20
1.309698
 10
3.190195
 20
1.322723
 10
3.136257
 20
1.336591
 10
3.082659
 20
1.351293
 10
3.029408
 20
1.366822
 10
2.976512
 20
1.38317
 10
2.923978
 20
1.400332
 10
2.871814
 20
1.418298
 10
2.820027
 20
1.437062
 10
2.768623
 20
1.456617
 10
2.717612
 20
1.476954
 10
2.666999
 20
1.498067
 10
2.616792
 20
1.519949
 10
2.567
 20
1.542592
 10
2.517628
 20
1.565988
 10
2.468684
 20
1.59013
 10
2.420176
 20
1.615012
 10
2.372111
 20
1.640625
 10
2.324497
 20
1.666962
 10
2.27734
 20
1.694016
 10
2.230649
 20
1.72178
 10
2.184429
 20
1.750246
 10
2.13869
 20
1.779407
 10
2.093438
 20
1.809255
 10
2.04868
 20
1.839783
 10
2.004425
 20
1.870984
 10
1.960678
 20
1.90285
 10
1.917448
 20
1.935375
 10
1.874743
 20
1.96855
 10
1.832568
 20
2.002368
 10
1.790932
 20
2.036823
 10
1.749842
 20
2.071906
 10
1.709306
 20
2.10761
 10
1.66933
 20
2.143929
 10
1.629922
 20
2.180854
 10
1.59109
 20
2.218378
 10
1.552841
 20
2.256494
 10
1.515181
 20
2.295194
 10
1.47812
 20
2.334472
 10
1.441663
 20
2.374319
 10
1.405818
 20
2.414729
 10
1.370593
 20
2.455694
 10
1.335995
 20
2.497207
 10
1.302031
 20
2.53926
 10
1.268709
 20
2.581847
 10
1.236036
 20
2.624959
 10
1.204019
 20
2.668589
 10
1.172666
 20
2.71273
 10
1.141984
 20
2.757375
 10
1.111981
 20
2.802517
 10
1.082663
 20
2.848147
 10
1.054038
 20
2.894259
 10
1.026114
 20
2.940845
 10
0.998898
 20
2.987897
 10
0.972397
 20
3.03541
 10
0.946618
 20
3.083374
 42
0.218245
 10
1.109895
 20
3.439293
 42
0.414214
 10
0.639895
 20
3.909293
 10
0.637415
 20
3.909204
 10
0.626414
 20
3.957524
 10
0.616088
 20
4.006096
 10
0.60644
 20
4.054914
 10
0.597476
 20
4.103975
 10
0.589201
 20
4.153272
 10
0.58162
 20
4.202801
 10
0.574738
 20
4.252556
 10
0.568559
 20
4.302533
 10
0.563088
 20
4.352725
 10
0.558331
 20
4.403128
 10
0.554293
 20
4.453737
 10
0.550977
 20
4.504547
 10
0.54839
 20
4.555551
 10
0.546536
 20
4.606746
 10
0.545421
 20
4.658126
 10
0.545048
 20
4.709686
 10
0.545324
 20
4.754006
 10
0.546149
 20
4.798194
 10
0.54752
 20
4.842246
 10
0.549434
 20
4.886159
 10
0.551887
 20
4.929931
 10
0.554876
 20
4.973557
 10
0.558398
 20
5.017034
 10
0.562449
 20
5.06036
 10
0.567027
 20
5.103531
 10
0.572129
 20
5.146543
 10
0.57775
 20
5.189394
 10
0.583888
 20
5.23208
 10
0.590539
 20
5.274598
 10
0.597701
 20
5.316944
 10
0.605369
 20
5.359116
 10
0.613541
 20
5.40111
 10
0.622213
 20
5.442924
 10
0.631383
 20
5.484552
 10
0.641047
 20
5.525993
 10
0.651201
 20
5.567244
 10
0.661843
 20
5.6083
 10
0.672969
 20
5.649159
 10
0.684576
 20
5.689817
 10
0.696661
 20
5.730272
 10
0.70922
 20
5.770519
 10
0.72225
 20
5.810556
 10
0.735749
 20
5.850379
 10
0.749712
 20
5.889986
 10
0.764137
 20
5.929372
 10
0.77902
 20
5.968535
 10
0.794357
 20
6.007472
 10
0.810147
 20
6.046178
 10
0.826385
 20
6.084652
 10
0.843069
 20
6.122888
 10
0.860194
 20
6.160886
 10
0.877758
 20
6.19864
 10
0.895758
 20
6.236148
 10
0.91419
 20
6.273407
 10
0.933051
 20
6.310414
 10
0.952338
 20
6.347164
 10
0.972048
 20
6.383655
 10
0.992176
 20
6.419884
 10
1.012721
 20
6.455847
 10
1.033679
 20
6.491541
 10
1.055046
 20
6.526963
 10
1.076819
 20
6.562109
 10
1.098996
 20
6.596977
 10
1.121572
 20
6.631563
 10
1.144545
 20
6.665864
 10
1.167911
 20
6.699876
 10
1.191668
 20
6.733596
 10
1.215811
 20
6.767022
 10
1.240338
 20
6.800149
 10
1.265245
 20
6.832975
 10
1.290529
 20
6.865496
 10
1.316187
 20
6.89771
 10
1.342216
 20
6.929612
 10
1.368612
 20
6.961199
 10
1.395372
 20
6.992469
 10
1.422493
 20
7.023418
 10
1.449972
 20
7.054042
 10
1.477805
 20
7.08434
 10
1.50599
 20
7.114306
 10
1.534522
 20
7.143938
 42
0.136807
 10
1.777663
 20
7.07604
 42
0.414214
 10
2.247663
 20
7.54604
 42
0.079913
 10
2.223687
 20
7.69334
 10
2.273457
 20
7.723058
 10
2.323758
 20
7.751968
 10
2.37458
 20
7.780062
 10
2.425914
 20
7.807332
 10
2.477752
 20
7.833767
 10
2.530084
 20
7.859359
 10
2.582902
 20
7.8841
 10
2.636197
 20
7.907979
 10
2.689959
 20
7.930989
 10
2.74418
 20
7.95312
 10
2.798851
 20
7.974364
 10
2.853963
 20
7.99471
 10
2.909506
 20
8.014152
 10
2.965473
 20
8.032679
 10
3.021854
 20
8.050282
 10
3.07864
 20
8.066954
 10
3.135822
 20
8.082684
 10
3.193391
 20
8.097464
 10
3.251339
 20
8.111285
 10
3.309656
 20
8.124138
 10
3.368333
 20
8.136014
 10
3.427363
 20
8.146904
 10
3.486734
 20
8.156799
 10
3.546439
 20
8.165691
 10
3.606469
 20
8.173569
 10
3.666815
 20
8.180427
 10
3.727468
 20
8.186253
 10
3.788418
 20
8.191041
 10
3.849658
 20
8.19478
 10
3.911177
 20
8.197461
 10
3.972967
 20
8.199076
  0
LWPOLYLINE
  5
40
100
AcDbEntity
  8
0
100
AcDbPolyline
 90
        4
 70
         129
 10
4.058856
 20
7.465624
 42
-0.414214
 10
6.808856
 20
4.715624
 42
-0.414214
 10
4.058856
 20
1.965624
 42
-0.414214
 10
1.308856
 20
4.715624
 42
-0.414214
  0
LWPOLYLINE
  5
41
100
AcDbEntity
  8
0
100
AcDbPolyline
 90
        4
 70
         129
 10
1.535997
 20
6.675209
 42
-0.414214
 10
1.442247
 20
6.581459
 42
-0.414214
 10
1.348497
 20
6.675209
 42
-0.414214
 10
1.442247
 20
6.768959
 42
-0.414214
  0
LWPOLYLINE
  5
42
100
AcDbEntity
  8
0
100
AcDbPolyline
 90
        4
 70
         129
 10
5.191256
 20
7.787007
 42
-0.414214
 10
5.097506
 20
7.693257
 42
-0.414214
 10
5.003756
 20
7.787007
 42
-0.414214
 10
5.097506
 20
7.880757
 42
-0.414214
  0
LWPOLYLINE
  5
43
100
AcDbEntity
  8
0
100
AcDbPolyline
 90
        4
 70
         129
 10
7.378177
 20
4.654214
 42
-0.414214
 10
7.284427
 20
4.560464
 42
-0.414214
 10
7.190677
 20
4.654214
 42
-0.414214
 10
7.284427
 20
4.747964
 42
-0.414214
  0
LWPOLYLINE
  5
44
100
AcDbEntity
  8
0
100
AcDbPolyline
 90
        4
 70
         129
 10
5.074508
 20
1.606242
 42
-0.414214
 10
4.980758
 20
1.512492
 42
-0.414214
 10
4.887008
 20
1.606242
 42
-0.414214
 10
4.980758
 20
1.699992
 42
-0.414214
  0
LWPOLYLINE
  5
45
100
AcDbEntity
  8
0
100
AcDbPolyline
 90
        4
 70
         129
 10
1.463843
 20
2.855286
 42
-0.414214
 10
1.370093
 20
2.761536
 42
-0.414214
 10
1.276343
 20
2.855286
 42
-0.414214
 10
1.370093
 20
2.949036
 42
-0.414214
  0
LWPOLYLINE
  5
46
100
AcDbEntity
  8
0
100
AcDbPolyline
 90
     1765
 70
         129
 10
21.348288
 20
1.910986
 10
21.345346
 20
1.922018
 10
21.34282
 20
1.933091
 10
21.340706
 20
1.944196
 10
21.339003
 20
1.955322
 10
21.337705
 20
1.966459
 10
21.336812
 20
1.977597
 10
21.336319
 20
1.988725
 10
21.336224
 20
1.999834
 10
21.336523
 20
2.010914
 10
21.337213
 20
2.021953
 10
21.338292
 20
2.032943
 10
21.339756
 20
2.043872
 10
21.341602
 20
2.054731
 10
21.343828
 20
2.06551
 10
21.34643
 20
2.076197
 10
21.349405
 20
2.086785
 10
21.35275
 20
2.097261
 10
21.356462
 20
2.107615
 10
21.360538
 20
2.117839
 10
21.364975
 20
2.127921
 10
21.36977
 20
2.137851
 10
21.374919
 20
2.14762
 10
21.380421
 20
2.157216
 10
21.386271
 20
2.16663
 10
21.392467
 20
2.175852
 10
21.399005
 20
2.184872
 10
21.405883
 20
2.193679
 10
21.413098
 20
2.202263
 10
21.420646
 20
2.210613
 10
21.428524
 20
2.218721
 10
21.43673
 20
2.226576
 10
21.445261
 20
2.234166
 10
21.496616
 20
2.278582
 10
21.547559
 20
2.323361
 10
21.598087
 20
2.368499
 10
21.6482
 20
2.413995
 10
21.697897
 20
2.459845
 10
21.747176
 20
2.506045
 10
21.796037
 20
2.552594
 10
21.844478
 20
2.599489
 10
21.892498
 20
2.646726
 10
21.940096
 20
2.694302
 10
21.987272
 20
2.742215
 10
22.034024
 20
2.790462
 10
22.08035
 20
2.839039
 10
22.126251
 20
2.887945
 10
22.171724
 20
2.937175
 10
22.216769
 20
2.986727
 10
22.261384
 20
3.036599
 10
22.305569
 20
3.086787
 10
22.349323
 20
3.137288
 10
22.392644
 20
3.188099
 10
22.435531
 20
3.239218
 10
22.477983
 20
3.290641
 10
22.519999
 20
3.342367
 10
22.561579
 20
3.394391
 10
22.60272
 20
3.44671
 10
22.643422
 20
3.499323
 10
22.683684
 20
3.552226
 10
22.723504
 20
3.605415
 10
22.762882
 20
3.658889
 10
22.801817
 20
3.712644
 10
22.840307
 20
3.766678
 10
22.878352
 20
3.820987
 10
22.915949
 20
3.875568
 10
22.953099
 20
3.93042
 10
22.9898
 20
3.985537
 10
23.026051
 20
4.040919
 10
23.06185
 20
4.096562
 10
23.097198
 20
4.152462
 10
23.132092
 20
4.208618
 10
23.166532
 20
4.265025
 10
23.200517
 20
4.321682
 10
23.234045
 20
4.378585
 10
23.267115
 20
4.435732
 10
23.299727
 20
4.493119
 10
23.331879
 20
4.550744
 10
23.36357
 20
4.608603
 10
23.394799
 20
4.666694
 10
23.425566
 20
4.725014
 10
23.455868
 20
4.78356
 10
23.485704
 20
4.842328
 10
23.515075
 20
4.901317
 10
23.543978
 20
4.960523
 10
23.572413
 20
5.019944
 10
23.600378
 20
5.079576
 10
23.627873
 20
5.139416
 10
23.654896
 20
5.199461
 10
23.681446
 20
5.25971
 10
23.707522
 20
5.320158
 10
23.733123
 20
5.380803
 10
23.758248
 20
5.441641
 10
23.782897
 20
5.502671
 10
23.807066
 20
5.563889
 10
23.830757
 20
5.625291
 10
23.853967
 20
5.686877
 10
23.876696
 20
5.748641
 10
23.898942
 20
5.810582
 10
23.920705
 20
5.872696
 10
23.941982
 20
5.934981
 10
23.962774
 20
5.997433
 10
23.98308
 20
6.060051
 10
24.002897
 20
6.12283
 10
24.022225
 20
6.185768
 10
24.041063
 20
6.248862
 10
24.059409
 20
6.312109
 10
24.077264
 20
6.375506
 10
24.094625
 20
6.439051
 10
24.111491
 20
6.50274
 10
24.127862
 20
6.56657
 10
24.143736
 20
6.630539
 10
24.159113
 20
6.694643
 10
24.173991
 20
6.758881
 10
24.188369
 20
6.823248
 10
24.202245
 20
6.887742
 10
24.21562
 20
6.95236
 10
24.228492
 20
7.017098
 10
24.240859
 20
7.081956
 10
24.252721
 20
7.146928
 10
24.264076
 20
7.212012
 10
24.274924
 20
7.277206
 10
24.285264
 20
7.342507
 10
24.295094
 20
7.407911
 10
24.304413
 20
7.473416
 10
24.31322
 20
7.539018
 10
24.321514
 20
7.604716
 10
24.329294
 20
7.670505
 10
24.336559
 20
7.736383
 10
24.343308
 20
7.802348
 10
24.34954
 20
7.868395
 10
24.355253
 20
7.934523
 10
24.360447
 20
8.000728
 10
24.365121
 20
8.067008
 10
24.369272
 20
8.133359
 10
24.372902
 20
8.199779
 10
24.376007
 20
8.266264
 10
24.378587
 20
8.332813
 10
24.380642
 20
8.399421
 10
24.382169
 20
8.466086
 10
24.383168
 20
8.532805
 10
24.383639
 20
8.599576
 10
24.383578
 20
8.666394
 10
24.382987
 20
8.733258
 10
24.381863
 20
8.800164
 10
24.380205
 20
8.86711
 10
24.378013
 20
8.934093
 10
24.375285
 20
9.001109
 10
24.372021
 20
9.068155
 10
24.368218
 20
9.13523
 10
24.363877
 20
9.20233
 10
24.358995
 20
9.269451
 10
24.353573
 20
9.336592
 10
24.347608
 20
9.403749
 10
24.341099
 20
9.470919
 10
24.334047
 20
9.538099
 10
24.326449
 20
9.605287
 10
24.318304
 20
9.67248
 10
24.309612
 20
9.739674
 10
24.300371
 20
9.806867
 10
24.29058
 20
9.874055
 10
24.289094
 20
9.885375
 10
24.288025
 20
9.896682
 10
24.28737
 20
9.907967
 10
24.287124
 20
9.91922
 10
24.287282
 20
9.93043
 10
24.287841
 20
9.94159
 10
24.288795
 20
9.952688
 10
24.290142
 20
9.963715
 10
24.291875
 20
9.974662
 10
24.293992
 20
9.985519
 10
24.296487
 20
9.996276
 10
24.299356
 20
10.006923
 10
24.302596
 20
10.017451
 10
24.306201
 20
10.02785
 10
24.310167
 20
10.03811
 10
24.31449
 20
10.048222
 10
24.319165
 20
10.058176
 10
24.324189
 20
10.067962
 10
24.329557
 20
10.077571
 10
24.335264
 20
10.086992
 10
24.341306
 20
10.096217
 10
24.347679
 20
10.105235
 10
24.354379
 20
10.114038
 10
24.3614
 20
10.122614
 10
24.36874
 20
10.130955
 10
24.376393
 20
10.13905
 10
24.384355
 20
10.146891
 10
24.392622
 20
10.154467
 10
24.401189
 20
10.161768
 10
24.410052
 20
10.168786
 10
24.419207
 20
10.17551
 10
24.42865
 20
10.18193
 10
24.44403
 20
10.192207
 10
24.459063
 20
10.202697
 10
24.473751
 20
10.213396
 10
24.488094
 20
10.224301
 10
24.502094
 20
10.235405
 10
24.515752
 20
10.246705
 10
24.52907
 20
10.258195
 10
24.542049
 20
10.269872
 10
24.55469
 20
10.281731
 10
24.566994
 20
10.293767
 10
24.578962
 20
10.305976
 10
24.590596
 20
10.318353
 10
24.601898
 20
10.330893
 10
24.612868
 20
10.343593
 10
24.623507
 20
10.356446
 10
24.633818
 20
10.36945
 10
24.6438
 20
10.382598
 10
24.653457
 20
10.395888
 10
24.662788
 20
10.409313
 10
24.671795
 20
10.42287
 10
24.680479
 20
10.436554
 10
24.688842
 20
10.45036
 10
24.696885
 20
10.464284
 10
24.704609
 20
10.478321
 10
24.712015
 20
10.492467
 10
24.719105
 20
10.506716
 10
24.72588
 20
10.521066
 10
24.732341
 20
10.53551
 10
24.73849
 20
10.550044
 10
24.744327
 20
10.564665
 10
24.749855
 20
10.579366
 10
24.755074
 20
10.594144
 10
24.759985
 20
10.608994
 10
24.764591
 20
10.623912
 10
24.768891
 20
10.638893
 10
24.772888
 20
10.653931
 10
24.776583
 20
10.669024
 10
24.779977
 20
10.684166
 10
24.785866
 20
10.714579
 10
24.790567
 20
10.745133
 10
24.794089
 20
10.775793
 10
24.796443
 20
10.806522
 10
24.797638
 20
10.837282
 10
24.797686
 20
10.868039
 10
24.796595
 20
10.898754
 10
24.794377
 20
10.929391
 10
24.791042
 20
10.959914
 10
24.7866
 20
10.990286
 10
24.78106
 20
11.020471
 10
24.774434
 20
11.050432
 10
24.766731
 20
11.080132
 10
24.757962
 20
11.109535
 10
24.748136
 20
11.138604
 10
24.737265
 20
11.167303
 10
24.725357
 20
11.195594
 10
24.712424
 20
11.223443
 10
24.698476
 20
11.250811
 10
24.683522
 20
11.277662
 10
24.667574
 20
11.30396
 10
24.65064
 20
11.329668
 10
24.632732
 20
11.35475
 10
24.613859
 20
11.379169
 10
24.594032
 20
11.402888
 10
24.583764
 20
11.414474
 10
24.573261
 20
11.425871
 10
24.562525
 20
11.437075
 10
24.551556
 20
11.448081
 10
24.540357
 20
11.458884
 10
24.528928
 20
11.469481
 10
24.51727
 20
11.479867
 10
24.505386
 20
11.490036
 10
24.493275
 20
11.499984
 10
24.480941
 20
11.509708
 10
24.468382
 20
11.519201
 10
24.455602
 20
11.528461
 10
24.442601
 20
11.537481
 10
24.429381
 20
11.546258
 10
24.415943
 20
11.554786
 10
24.402287
 20
11.563062
 10
24.388416
 20
11.571081
 10
24.374331
 20
11.578838
 10
24.360032
 20
11.586329
 10
24.345522
 20
11.593549
 10
24.330801
 20
11.600493
 10
24.315871
 20
11.607157
 10
24.300733
 20
11.613536
 10
24.285389
 20
11.619626
 10
24.269838
 20
11.625423
 10
24.254084
 20
11.630921
 10
24.238127
 20
11.636116
 10
24.221968
 20
11.641003
 10
24.205609
 20
11.645578
 10
24.189051
 20
11.649837
 10
24.172295
 20
11.653774
 10
24.155343
 20
11.657386
 10
24.138195
 20
11.660667
 10
24.120854
 20
11.663613
 10
24.103319
 20
11.66622
 10
24.085594
 20
11.668482
 10
24.067678
 20
11.670396
 10
24.049573
 20
11.671957
 10
24.031281
 20
11.673159
 10
24.012802
 20
11.674
 10
24.001401
 20
11.674611
 10
23.990089
 20
11.67563
 10
23.978875
 20
11.677052
 10
23.967767
 20
11.67887
 10
23.956775
 20
11.681077
 10
23.945906
 20
11.683669
 10
23.93517
 20
11.68664
 10
23.924576
 20
11.689982
 10
23.914131
 20
11.69369
 10
23.903846
 20
11.697758
 10
23.893728
 20
11.702179
 10
23.883786
 20
11.706949
 10
23.874029
 20
11.71206
 10
23.864466
 20
11.717508
 10
23.855106
 20
11.723285
 10
23.845957
 20
11.729385
 10
23.837028
 20
11.735803
 10
23.828327
 20
11.742533
 10
23.819864
 20
11.749569
 10
23.811647
 20
11.756903
 10
23.803684
 20
11.764532
 10
23.795986
 20
11.772447
 10
23.788559
 20
11.780645
 10
23.781414
 20
11.789117
 10
23.774558
 20
11.797859
 10
23.768001
 20
11.806864
 10
23.761751
 20
11.816126
 10
23.755816
 20
11.825639
 10
23.750207
 20
11.835398
 10
23.744931
 20
11.845395
 10
23.739997
 20
11.855626
 10
23.735413
 20
11.866083
 10
23.713571
 20
11.918
 10
23.691384
 20
11.969766
 10
23.668852
 20
12.02138
 10
23.645977
 20
12.072838
 10
23.622759
 20
12.124141
 10
23.599199
 20
12.175285
 10
23.575298
 20
12.22627
 10
23.551057
 20
12.277094
 10
23.526477
 20
12.327754
 10
23.501558
 20
12.378249
 10
23.476302
 20
12.428579
 10
23.450708
 20
12.478739
 10
23.424779
 20
12.52873
 10
23.398514
 20
12.57855
 10
23.371915
 20
12.628196
 10
23.344983
 20
12.677666
 10
23.337058
 20
12.697347
 10
23.329485
 20
12.717112
 10
23.322263
 20
12.736958
 10
23.315391
 20
12.75688
 10
23.308868
 20
12.776874
 10
23.302695
 20
12.796935
 10
23.29687
 20
12.81706
 10
23.291392
 20
12.837245
 10
23.286262
 20
12.857484
 10
23.281478
 20
12.877774
 10
23.277041
 20
12.898111
 10
23.272948
 20
12.91849
 10
23.269201
 20
12.938906
 10
23.265797
 20
12.959357
 10
23.262738
 20
12.979837
 10
23.260021
 20
13.000343
 10
23.257646
 20
13.02087
 10
23.255614
 20
13.041413
 10
23.253923
 20
13.061969
 10
23.252572
 20
13.082534
 10
23.251561
 20
13.103102
 10
23.25089
 20
13.123671
 10
23.250557
 20
13.144235
 10
23.250563
 20
13.16479
 10
23.250907
 20
13.185332
 10
23.251587
 20
13.205858
 10
23.252604
 20
13.226362
 10
23.253957
 20
13.24684
 10
23.255644
 20
13.267289
 10
23.257667
 20
13.287703
 10
23.260024
 20
13.308079
 10
23.262714
 20
13.328413
 10
23.265737
 20
13.3487
 10
23.269092
 20
13.368935
 10
23.272779
 20
13.389116
 10
23.276797
 20
13.409237
 10
23.281145
 20
13.429294
 10
23.285823
 20
13.449283
 10
23.290831
 20
13.4692
 10
23.296167
 20
13.48904
 10
23.301831
 20
13.508799
 10
23.307823
 20
13.528474
 10
23.314142
 20
13.548059
 10
23.320787
 20
13.567551
 10
23.327757
 20
13.586945
 10
23.335053
 20
13.606237
 10
23.342673
 20
13.625423
 10
23.350618
 20
13.644498
 10
23.358885
 20
13.663459
 10
23.367475
 20
13.682301
 10
23.376388
 20
13.70102
 10
23.385621
 20
13.719611
 10
23.395176
 20
13.73807
 10
23.405051
 20
13.756394
 10
23.415246
 20
13.774578
 10
23.42576
 20
13.792617
 10
23.436592
 20
13.810507
 10
23.447743
 20
13.828245
 10
23.45921
 20
13.845825
 10
23.470995
 20
13.863244
 10
23.483096
 20
13.880498
 10
23.495512
 20
13.897581
 10
23.508243
 20
13.914491
 10
23.521288
 20
13.931222
 10
24.24183
 20
14.839458
 10
24.267035
 20
14.871613
 10
24.291666
 20
14.903814
 10
24.315728
 20
14.936057
 10
24.339223
 20
14.968342
 10
24.362154
 20
15.000664
 10
24.384525
 20
15.033023
 10
24.406337
 20
15.065415
 10
24.427594
 20
15.097839
 10
24.448298
 20
15.130292
 10
24.468454
 20
15.162771
 10
24.488063
 20
15.195275
 10
24.507129
 20
15.227801
 10
24.525655
 20
15.260346
 10
24.543643
 20
15.292909
 10
24.561097
 20
15.325487
 10
24.578019
 20
15.358078
 10
24.594412
 20
15.390679
 10
24.61028
 20
15.423288
 10
24.625625
 20
15.455903
 10
24.64045
 20
15.488521
 10
24.654758
 20
15.52114
 10
24.668553
 20
15.553758
 10
24.681836
 20
15.586372
 10
24.694611
 20
15.61898
 10
24.706882
 20
15.65158
 10
24.71865
 20
15.684169
 10
24.729919
 20
15.716745
 10
24.740691
 20
15.749306
 10
24.75097
 20
15.781849
 10
24.760759
 20
15.814373
 10
24.770061
 20
15.846874
 10
24.778878
 20
15.87935
 10
24.787213
 20
15.9118
 10
24.79507
 20
15.94422
 10
24.802451
 20
15.976608
 10
24.809359
 20
16.008963
 10
24.815798
 20
16.041281
 10
24.82177
 20
16.07356
 10
24.827277
 20
16.105799
 10
24.832324
 20
16.137994
 10
24.836913
 20
16.170143
 10
24.841047
 20
16.202245
 10
24.844728
 20
16.234296
 10
24.847961
 20
16.266295
 10
24.850747
 20
16.298238
 10
24.853089
 20
16.330125
 10
24.854992
 20
16.361951
 10
24.856457
 20
16.393716
 10
24.857487
 20
16.425416
 10
24.858086
 20
16.45705
 10
24.858256
 20
16.488615
 10
24.858001
 20
16.520108
 10
24.857323
 20
16.551528
 10
24.856225
 20
16.582871
 10
24.85471
 20
16.614137
 10
24.852782
 20
16.645322
 10
24.850442
 20
16.676423
 10
24.847694
 20
16.70744
 10
24.844542
 20
16.738368
 10
24.840987
 20
16.769207
 10
24.837033
 20
16.799954
 10
24.832683
 20
16.830605
 10
24.827939
 20
16.86116
 10
24.822805
 20
16.891616
 10
24.817284
 20
16.921969
 10
24.811378
 20
16.952219
 10
24.80509
 20
16.982363
 10
24.798424
 20
17.012398
 10
24.791383
 20
17.042321
 10
24.783968
 20
17.072132
 10
24.776184
 20
17.101827
 10
24.768033
 20
17.131403
 10
24.759518
 20
17.16086
 10
24.750643
 20
17.190194
 10
24.741409
 20
17.219402
 10
24.73182
 20
17.248484
 10
24.721879
 20
17.277436
 10
24.711588
 20
17.306256
 10
24.700952
 20
17.334941
 10
24.689972
 20
17.36349
 10
24.678652
 20
17.3919
 10
24.666995
 20
17.420168
 10
24.655003
 20
17.448293
 10
24.642679
 20
17.476272
 10
24.630027
 20
17.504102
 10
24.617049
 20
17.531782
 10
24.603749
 20
17.559309
 10
24.590128
 20
17.58668
 10
24.576191
 20
17.613894
 10
24.56194
 20
17.640947
 10
24.547378
 20
17.667839
 10
24.532508
 20
17.694566
 10
24.517333
 20
17.721125
 10
24.501856
 20
17.747516
 10
24.48608
 20
17.773734
 10
24.470008
 20
17.799779
 10
24.453642
 20
17.825647
 10
24.436986
 20
17.851337
 10
24.420042
 20
17.876846
 10
24.402814
 20
17.902171
 10
24.385305
 20
17.92731
 10
24.367516
 20
17.952262
 10
24.349453
 20
17.977023
 10
24.331116
 20
18.001592
 10
24.31251
 20
18.025965
 10
24.293637
 20
18.050142
 10
24.2745
 20
18.074118
 10
24.255102
 20
18.097892
 10
24.235446
 20
18.121463
 10
24.215536
 20
18.144826
 10
24.195373
 20
18.167981
 10
24.17496
 20
18.190924
 10
24.154302
 20
18.213653
 10
24.1334
 20
18.236166
 10
24.112258
 20
18.258461
 10
24.090879
 20
18.280536
 10
24.069265
 20
18.302387
 10
24.04742
 20
18.324013
 10
24.025346
 20
18.345411
 10
24.003046
 20
18.366579
 10
23.980524
 20
18.387515
 10
23.957782
 20
18.408216
 10
23.934823
 20
18.428681
 10
23.911651
 20
18.448905
 10
23.888267
 20
18.468889
 10
23.864676
 20
18.488628
 10
23.840879
 20
18.50812
 10
23.81688
 20
18.527364
 10
23.792683
 20
18.546357
 10
23.768289
 20
18.565097
 10
23.743701
 20
18.583581
 10
23.718924
 20
18.601807
 10
23.693958
 20
18.619772
 10
23.668809
 20
18.637475
 10
23.643478
 20
18.654913
 10
23.617968
 20
18.672083
 10
23.592283
 20
18.688984
 10
23.566425
 20
18.705613
 10
23.540398
 20
18.721967
 10
23.514203
 20
18.738045
 10
23.487845
 20
18.753844
 10
23.461326
 20
18.769361
 10
23.434649
 20
18.784594
 10
23.407817
 20
18.799542
 10
23.380833
 20
18.814201
 10
23.353699
 20
18.828569
 10
23.32642
 20
18.842645
 10
23.298997
 20
18.856425
 10
23.271434
 20
18.869907
 10
23.243733
 20
18.883089
 10
23.215898
 20
18.895969
 10
23.187932
 20
18.908544
 10
23.159837
 20
18.920813
 10
23.131616
 20
18.932771
 10
23.103273
 20
18.944418
 10
23.07481
 20
18.955751
 10
23.04623
 20
18.966768
 10
23.017536
 20
18.977466
 10
22.988732
 20
18.987843
 10
22.959819
 20
18.997896
 10
22.930801
 20
19.007624
 10
22.901682
 20
19.017024
 10
22.872463
 20
19.026093
 10
22.843148
 20
19.03483
 10
22.81374
 20
19.043232
 10
22.784241
 20
19.051296
 10
22.754656
 20
19.05902
 10
22.724985
 20
19.066403
 10
22.695233
 20
19.073441
 10
22.665403
 20
19.080132
 10
22.635497
 20
19.086475
 10
22.605519
 20
19.092466
 10
22.57547
 20
19.098103
 10
22.545355
 20
19.103384
 10
22.515176
 20
19.108307
 10
22.484937
 20
19.112869
 10
22.454639
 20
19.117068
 10
22.424286
 20
19.120901
 10
22.393881
 20
19.124367
 10
22.363427
 20
19.127463
 10
22.332927
 20
19.130187
 10
22.302384
 20
19.132535
 10
22.2718
 20
19.134507
 10
22.241179
 20
19.136099
 10
22.210524
 20
19.13731
 10
22.179837
 20
19.138136
 10
22.149121
 20
19.138577
 10
22.11838
 20
19.138628
 10
22.087616
 20
19.138288
 10
22.056833
 20
19.137555
 10
22.026033
 20
19.136426
 10
21.995219
 20
19.1349
 10
21.964394
 20
19.132972
 10
21.933561
 20
19.130642
 10
21.902723
 20
19.127907
 10
21.871883
 20
19.124765
 10
21.841044
 20
19.121213
 10
21.810209
 20
19.117248
 10
21.779381
 20
19.11287
 10
21.748562
 20
19.108074
 10
21.717756
 20
19.10286
 10
21.686966
 20
19.097224
 10
21.656194
 20
19.091165
 10
21.625443
 20
19.084679
 10
21.594717
 20
19.077765
 10
21.564019
 20
19.07042
 10
21.53335
 20
19.062642
 10
21.502715
 20
19.054429
 10
21.472116
 20
19.045778
 10
21.441556
 20
19.036687
 10
21.411039
 20
19.027154
 10
21.380566
 20
19.017175
 10
21.350141
 20
19.00675
 10
21.319767
 20
18.995875
 10
21.289447
 20
18.984549
 10
21.259184
 20
18.972769
 10
21.22898
 20
18.960532
 10
21.19884
 20
18.947836
 10
21.168764
 20
18.934679
 10
21.138758
 20
18.921059
 10
21.108822
 20
18.906973
 10
21.078961
 20
18.892419
 10
21.049178
 20
18.877395
 10
21.019475
 20
18.861898
 10
20.989855
 20
18.845926
 10
20.960321
 20
18.829476
 10
20.930877
 20
18.812547
 10
20.901524
 20
18.795136
 10
20.872267
 20
18.77724
 10
20.843107
 20
18.758857
 10
20.814049
 20
18.739986
 10
20.785094
 20
18.720622
 10
20.756246
 20
18.700766
 10
20.727508
 20
18.680413
 10
20.698882
 20
18.659561
 10
20.670372
 20
18.638209
 10
20.641981
 20
18.616354
 10
20.613711
 20
18.593994
 10
20.585566
 20
18.571125
 10
20.557548
 20
18.547747
 10
20.52966
 20
18.523856
 10
20.501905
 20
18.499451
 10
20.474287
 20
18.474528
 10
20.446808
 20
18.449086
 10
20.419471
 20
18.423122
 10
20.392279
 20
18.396634
 10
20.365235
 20
18.36962
 10
20.338342
 20
18.342077
 10
20.311603
 20
18.314002
 10
20.28502
 20
18.285395
 10
20.258597
 20
18.256251
 10
20.232337
 20
18.22657
 10
20.206243
 20
18.196348
 10
20.180317
 20
18.165583
 10
20.154563
 20
18.134274
 10
20.128983
 20
18.102416
 10
19.408427
 20
17.19418
 10
19.395101
 20
17.177671
 10
19.381529
 20
17.161428
 10
19.367717
 20
17.145452
 10
19.353667
 20
17.129744
 10
19.339384
 20
17.114307
 10
19.324872
 20
17.099141
 10
19.310135
 20
17.084249
 10
19.295176
 20
17.069631
 10
19.280001
 20
17.05529
 10
19.264612
 20
17.041227
 10
19.249014
 20
17.027443
 10
19.233211
 20
17.013941
 10
19.217207
 20
17.000721
 10
19.201006
 20
16.987785
 10
19.184611
 20
16.975135
 10
19.168027
 20
16.962772
 10
19.151258
 20
16.950697
 10
19.134308
 20
16.938914
 10
19.11718
 20
16.927421
 10
19.09988
 20
16.916223
 10
19.08241
 20
16.905319
 10
19.064775
 20
16.894712
 10
19.046979
 20
16.884403
 10
19.029025
 20
16.874393
 10
19.010918
 20
16.864684
 10
18.992662
 20
16.855279
 10
18.974261
 20
16.846177
 10
18.955718
 20
16.837381
 10
18.937038
 20
16.828893
 10
18.918225
 20
16.820713
 10
18.899283
 20
16.812844
 10
18.880215
 20
16.805286
 10
18.861027
 20
16.798042
 10
18.84172
 20
16.791114
 10
18.822301
 20
16.784501
 10
18.802772
 20
16.778207
 10
18.783138
 20
16.772233
 10
18.763403
 20
16.766579
 10
18.74357
 20
16.761249
 10
18.723644
 20
16.756243
 10
18.703629
 20
16.751562
 10
18.683528
 20
16.747209
 10
18.663347
 20
16.743185
 10
18.643087
 20
16.739492
 10
18.622755
 20
16.73613
 10
18.602353
 20
16.733102
 10
18.581886
 20
16.73041
 10
18.561357
 20
16.728053
 10
18.540771
 20
16.726035
 10
18.520132
 20
16.724357
 10
18.499443
 20
16.72302
 10
18.478709
 20
16.722026
 10
18.457934
 20
16.721377
 10
18.437121
 20
16.721073
 10
18.416275
 20
16.721117
 10
18.395399
 20
16.72151
 10
18.374498
 20
16.722253
 10
18.353576
 20
16.723349
 10
18.332636
 20
16.724798
 10
18.311683
 20
16.726602
 10
18.29072
 20
16.728763
 10
18.269752
 20
16.731283
 10
18.248783
 20
16.734162
 10
18.227816
 20
16.737403
 10
18.173516
 20
16.752377
 10
18.119121
 20
16.766986
 10
18.064633
 20
16.78123
 10
18.010055
 20
16.795109
 10
17.955387
 20
16.808622
 10
17.900633
 20
16.821769
 10
17.845793
 20
16.834549
 10
17.79087
 20
16.846962
 10
17.735865
 20
16.859007
 10
17.680781
 20
16.870684
 10
17.625619
 20
16.881993
 10
17.570381
 20
16.892934
 10
17.515068
 20
16.903505
 10
17.459684
 20
16.913707
 10
17.404229
 20
16.923538
 10
17.348705
 20
16.933
 10
17.337479
 20
16.935084
 10
17.326394
 20
16.937562
 10
17.315458
 20
16.940426
 10
17.304679
 20
16.943669
 10
17.294065
 20
16.947284
 10
17.283624
 20
16.951264
 10
17.273363
 20
16.955602
 10
17.263291
 20
16.96029
 10
17.253415
 20
16.965322
 10
17.243743
 20
16.970689
 10
17.234283
 20
16.976387
 10
17.225043
 20
16.982406
 10
17.216032
 20
16.98874
 10
17.207255
 20
16.995382
 10
17.198723
 20
17.002324
 10
17.190441
 20
17.009561
 10
17.182419
 20
17.017083
 10
17.174664
 20
17.024885
 10
17.167184
 20
17.032959
 10
17.159987
 20
17.041298
 10
17.153081
 20
17.049895
 10
17.146473
 20
17.058743
 10
17.140172
 20
17.067834
 10
17.134186
 20
17.077162
 10
17.128521
 20
17.086719
 10
17.123187
 20
17.096499
 10
17.11819
 20
17.106493
 10
17.113539
 20
17.116696
 10
17.109242
 20
17.1271
 10
17.105307
 20
17.137697
 10
17.101741
 20
17.148481
 10
17.098552
 20
17.159444
 10
17.093532
 20
17.177247
 10
17.0882
 20
17.194786
 10
17.082563
 20
17.212062
 10
17.076625
 20
17.229072
 10
17.07039
 20
17.245819
 10
17.063864
 20
17.262301
 10
17.057051
 20
17.278518
 10
17.049956
 20
17.29447
 10
17.042584
 20
17.310156
 10
17.034939
 20
17.325577
 10
17.027026
 20
17.340733
 10
17.01885
 20
17.355623
 10
17.010416
 20
17.370246
 10
17.001728
 20
17.384603
 10
16.992792
 20
17.398694
 10
16.983611
 20
17.412519
 10
16.97419
 20
17.426076
 10
16.964535
 20
17.439366
 10
16.954651
 20
17.452389
 10
16.94454
 20
17.465145
 10
16.93421
 20
17.477633
 10
16.923664
 20
17.489853
 10
16.912907
 20
17.501805
 10
16.901944
 20
17.513488
 10
16.890779
 20
17.524903
 10
16.879417
 20
17.53605
 10
16.867864
 20
17.546928
 10
16.856123
 20
17.557536
 10
16.8442
 20
17.567875
 10
16.8321
 20
17.577945
 10
16.819826
 20
17.587745
 10
16.807384
 20
17.597276
 10
16.794778
 20
17.606536
 10
16.782014
 20
17.615526
 10
16.769095
 20
17.624245
 10
16.756028
 20
17.632694
 10
16.742816
 20
17.640872
 10
16.729464
 20
17.648778
 10
16.70236
 20
17.663778
 10
16.674753
 20
17.67769
 10
16.646682
 20
17.690515
 10
16.618185
 20
17.702249
 10
16.5893
 20
17.712892
 10
16.560064
 20
17.722441
 10
16.530515
 20
17.730896
 10
16.500692
 20
17.738254
 10
16.470632
 20
17.744515
 10
16.440374
 20
17.749675
 10
16.409955
 20
17.753735
 10
16.379413
 20
17.756691
 10
16.348787
 20
17.758543
 10
16.318113
 20
17.759289
 10
16.287431
 20
17.758928
 10
16.256777
 20
17.757457
 10
16.226191
 20
17.754875
 10
16.195709
 20
17.75118
 10
16.16537
 20
17.746372
 10
16.135212
 20
17.740448
 10
16.105273
 20
17.733406
 10
16.075591
 20
17.725246
 10
16.046203
 20
17.715965
 10
16.017147
 20
17.705562
 10
15.988462
 20
17.694035
 10
15.974271
 20
17.687849
 10
15.960186
 20
17.681382
 10
15.946213
 20
17.674634
 10
15.932356
 20
17.667603
 10
15.91862
 20
17.66029
 10
15.90501
 20
17.652695
 10
15.891531
 20
17.644818
 10
15.878187
 20
17.636657
 10
15.864983
 20
17.628214
 10
15.851924
 20
17.619487
 10
15.839014
 20
17.610477
 10
15.826259
 20
17.601184
 10
15.813663
 20
17.591607
 10
15.80123
 20
17.581746
 10
15.788966
 20
17.5716
 10
15.776876
 20
17.561171
 10
15.764963
 20
17.550456
 10
15.753233
 20
17.539457
 10
15.741691
 20
17.528173
 10
15.73034
 20
17.516604
 10
15.719187
 20
17.50475
 10
15.708236
 20
17.49261
 10
15.697491
 20
17.480184
 10
15.686957
 20
17.467472
 10
15.676639
 20
17.454474
 10
15.666542
 20
17.44119
 10
15.65667
 20
17.427619
 10
15.647028
 20
17.413761
 10
15.637622
 20
17.399617
 10
15.628455
 20
17.385185
 10
15.619532
 20
17.370466
 10
15.610859
 20
17.355459
 10
15.602439
 20
17.340164
 10
15.594279
 20
17.324582
 10
15.586381
 20
17.308711
 10
15.578752
 20
17.292552
 10
15.571395
 20
17.276104
 10
15.564317
 20
17.259368
 10
15.55752
 20
17.242342
 10
15.551011
 20
17.225028
 10
15.546907
 20
17.214373
 10
15.542442
 20
17.203929
 10
15.537625
 20
17.193703
 10
15.532464
 20
17.1837
 10
15.526967
 20
17.173928
 10
15.521144
 20
17.164392
 10
15.515002
 20
17.155099
 10
15.508549
 20
17.146056
 10
15.501795
 20
17.137268
 10
15.494748
 20
17.128743
 10
15.487416
 20
17.120486
 10
15.479807
 20
17.112505
 10
15.471931
 20
17.104805
 10
15.463795
 20
17.097393
 10
15.455408
 20
17.090276
 10
15.446778
 20
17.08346
 10
15.437914
 20
17.076951
 10
15.428825
 20
17.070756
 10
15.419518
 20
17.064881
 10
15.410003
 20
17.059332
 10
15.400287
 20
17.054117
 10
15.390379
 20
17.049241
 10
15.380288
 20
17.044711
 10
15.370022
 20
17.040533
 10
15.35959
 20
17.036715
 10
15.348999
 20
17.033261
 10
15.338259
 20
17.030179
 10
15.327377
 20
17.027475
 10
15.316363
 20
17.025156
 10
15.305224
 20
17.023227
 10
15.29397
 20
17.021696
 10
15.282608
 20
17.020569
 10
15.214953
 20
17.014822
 10
15.14742
 20
17.008539
 10
15.08001
 20
17.001721
 10
15.012726
 20
16.99437
 10
14.94557
 20
16.986488
 10
14.878547
 20
16.978077
 10
14.811657
 20
16.969137
 10
14.744903
 20
16.959672
 10
14.678289
 20
16.949682
 10
14.611816
 20
16.93917
 10
14.545487
 20
16.928137
 10
14.479306
 20
16.916584
 10
14.413274
 20
16.904514
 10
14.347394
 20
16.891929
 10
14.281668
 20
16.878829
 10
14.2161
 20
16.865217
 10
14.150691
 20
16.851095
 10
14.085445
 20
16.836463
 10
14.020364
 20
16.821325
 10
13.955451
 20
16.805681
 10
13.890707
 20
16.789534
 10
13.826137
 20
16.772884
 10
13.761741
 20
16.755734
 10
13.697524
 20
16.738086
 10
13.633487
 20
16.719941
 10
13.569634
 20
16.7013
 10
13.505966
 20
16.682167
 10
13.442486
 20
16.662541
 10
13.379197
 20
16.642426
 10
13.316102
 20
16.621822
 10
13.253203
 20
16.600732
 10
13.190502
 20
16.579157
 10
13.128003
 20
16.557099
 10
13.065707
 20
16.53456
 10
13.003618
 20
16.511541
 10
12.941738
 20
16.488044
 10
12.880069
 20
16.464071
 10
12.818615
 20
16.439624
 10
12.757377
 20
16.414703
 10
12.696359
 20
16.389312
 10
12.635563
 20
16.363451
 10
12.574992
 20
16.337123
 10
12.514647
 20
16.310329
 10
12.454532
 20
16.283071
 10
12.39465
 20
16.25535
 10
12.335002
 20
16.227168
 10
12.275592
 20
16.198528
 10
12.216422
 20
16.16943
 10
12.157495
 20
16.139877
 10
12.098813
 20
16.109869
 10
12.040379
 20
16.07941
 10
11.982195
 20
16.0485
 10
11.924265
 20
16.017142
 10
11.86659
 20
15.985336
 10
11.809173
 20
15.953086
 10
11.752017
 20
15.920391
 10
11.695124
 20
15.887255
 10
11.638498
 20
15.853679
 10
11.58214
 20
15.819665
 10
11.526053
 20
15.785213
 10
11.47024
 20
15.750327
 10
11.414703
 20
15.715008
 10
11.359445
 20
15.679257
 10
11.304469
 20
15.643076
 10
11.249777
 20
15.606467
 10
11.195371
 20
15.569432
 10
11.141255
 20
15.531973
 10
11.087431
 20
15.49409
 10
11.033901
 20
15.455786
 10
10.980669
 20
15.417063
 10
10.927735
 20
15.377922
 10
10.875105
 20
15.338364
 10
10.822779
 20
15.298393
 10
10.77076
 20
15.258009
 10
10.719052
 20
15.217214
 10
10.667656
 20
15.17601
 10
10.616575
 20
15.134398
 10
10.565812
 20
15.092381
 10
10.51537
 20
15.04996
 10
10.46525
 20
15.007136
 10
10.415456
 20
14.963912
 10
10.36599
 20
14.920289
 10
10.316855
 20
14.876269
 10
10.268053
 20
14.831854
 10
10.219587
 20
14.787044
 10
10.17146
 20
14.741843
 10
10.123674
 20
14.696252
 10
10.076231
 20
14.650272
 10
10.029135
 20
14.603905
 10
9.982387
 20
14.557153
 10
9.935991
 20
14.510018
 10
9.889949
 20
14.462501
 10
9.844264
 20
14.414604
 10
9.798938
 20
14.366329
 10
9.753973
 20
14.317678
 10
9.709373
 20
14.268651
 10
9.665141
 20
14.219252
 10
9.621277
 20
14.169481
 10
9.577786
 20
14.119341
 10
9.53467
 20
14.068832
 10
9.491931
 20
14.017958
 10
9.449572
 20
13.966719
 10
9.407595
 20
13.915117
 10
9.366004
 20
13.863154
 10
9.3248
 20
13.810832
 10
9.283987
 20
13.758153
 10
9.243566
 20
13.705117
 10
9.203541
 20
13.651728
 10
9.163914
 20
13.597985
 10
9.124688
 20
13.543893
 10
9.085865
 20
13.489451
 10
9.047447
 20
13.434662
 10
9.009439
 20
13.379527
 10
8.971841
 20
13.324048
 10
8.934657
 20
13.268228
 10
8.897889
 20
13.212067
 10
8.86154
 20
13.155567
 10
8.825612
 20
13.09873
 10
8.790108
 20
13.041558
 10
8.755031
 20
12.984053
 10
8.720383
 20
12.926216
 10
8.686167
 20
12.868048
 10
8.652385
 20
12.809552
 10
8.619039
 20
12.75073
 10
8.586134
 20
12.691583
 10
8.55367
 20
12.632112
 10
8.521652
 20
12.57232
 10
8.49008
 20
12.512208
 10
8.484628
 20
12.502177
 10
8.478846
 20
12.492401
 10
8.472742
 20
12.482886
 10
8.466327
 20
12.473638
 10
8.459609
 20
12.464662
 10
8.452597
 20
12.455962
 10
8.445301
 20
12.447544
 10
8.43773
 20
12.439414
 10
8.429893
 20
12.431577
 10
8.4218
 20
12.424038
 10
8.413458
 20
12.416802
 10
8.404879
 20
12.409875
 10
8.396071
 20
12.403262
 10
8.387042
 20
12.396968
 10
8.377803
 20
12.390999
 10
8.368363
 20
12.385359
 10
8.35873
 20
12.380055
 10
8.348915
 20
12.37509
 10
8.338925
 20
12.370472
 10
8.328771
 20
12.366204
 10
8.318461
 20
12.362293
 10
8.308005
 20
12.358743
 10
8.297412
 20
12.35556
 10
8.286691
 20
12.352749
 10
8.275852
 20
12.350316
 10
8.264903
 20
12.348265
 10
8.253854
 20
12.346602
 10
8.242714
 20
12.345332
 10
8.231492
 20
12.344461
 10
8.220197
 20
12.343994
 10
8.208839
 20
12.343935
 10
8.197427
 20
12.344291
 10
8.178944
 20
12.345018
 10
8.160616
 20
12.345367
 10
8.142444
 20
12.345344
 10
8.124431
 20
12.344954
 10
8.106577
 20
12.344199
 10
8.088885
 20
12.343086
 10
8.071357
 20
12.341618
 10
8.053993
 20
12.339799
 10
8.036796
 20
12.337635
 10
8.019767
 20
12.33513
 10
8.002908
 20
12.332288
 10
7.986221
 20
12.329113
 10
7.969706
 20
12.32561
 10
7.953367
 20
12.321784
 10
7.937204
 20
12.317639
 10
7.921219
 20
12.31318
 10
7.905414
 20
12.30841
 10
7.889791
 20
12.303334
 10
7.874351
 20
12.297957
 10
7.859095
 20
12.292284
 10
7.844026
 20
12.286318
 10
7.829145
 20
12.280064
 10
7.814454
 20
12.273527
 10
7.799954
 20
12.26671
 10
7.785648
 20
12.25962
 10
7.771536
 20
12.252259
 10
7.75762
 20
12.244632
 10
7.743903
 20
12.236744
 10
7.730385
 20
12.2286
 10
7.717069
 20
12.220203
 10
7.703956
 20
12.211558
 10
7.691047
 20
12.20267
 10
7.678345
 20
12.193543
 10
7.66585
 20
12.184181
 10
7.653566
 20
12.174589
 10
7.641492
 20
12.164772
 10
7.629632
 20
12.154733
 10
7.617986
 20
12.144478
 10
7.595345
 20
12.123335
 10
7.573582
 20
12.101379
 10
7.552711
 20
12.078645
 10
7.532745
 20
12.055168
 10
7.513697
 20
12.030985
 10
7.49558
 20
12.006131
 10
7.478408
 20
11.980641
 10
7.462194
 20
11.954551
 10
7.446952
 20
11.927897
 10
7.432693
 20
11.900714
 10
7.419432
 20
11.873038
 10
7.407182
 20
11.844904
 10
7.395957
 20
11.816349
 10
7.385769
 20
11.787407
 10
7.376631
 20
11.758114
 10
7.368558
 20
11.728506
 10
7.361561
 20
11.698618
 10
7.355655
 20
11.668487
 10
7.350853
 20
11.638147
 10
7.347168
 20
11.607634
 10
7.344613
 20
11.576984
 10
7.343202
 20
11.546232
 10
7.342947
 20
11.515414
 10
7.343862
 20
11.484566
 10
7.345961
 20
11.453723
 10
7.347458
 20
11.438315
 10
7.349256
 20
11.422921
 10
7.351356
 20
11.407546
 10
7.353761
 20
11.392195
 10
7.356471
 20
11.376871
 10
7.359489
 20
11.36158
 10
7.362815
 20
11.346326
 10
7.366453
 20
11.331114
 10
7.370403
 20
11.315947
 10
7.374666
 20
11.30083
 10
7.379246
 20
11.285768
 10
7.384143
 20
11.270765
 10
7.389359
 20
11.255826
 10
7.394895
 20
11.240955
 10
7.400754
 20
11.226156
 10
7.406937
 20
11.211434
 10
7.413446
 20
11.196793
 10
7.420282
 20
11.182239
 10
7.427446
 20
11.167774
 10
7.434942
 20
11.153404
 10
7.442769
 20
11.139134
 10
7.450931
 20
11.124967
 10
7.459428
 20
11.110908
 10
7.468263
 20
11.096961
 10
7.477436
 20
11.083132
 10
7.48695
 20
11.069424
 10
7.496806
 20
11.055842
 10
7.507006
 20
11.04239
 10
7.517551
 20
11.029072
 10
7.528444
 20
11.015894
 10
7.539686
 20
11.00286
 10
7.551278
 20
10.989974
 10
7.563222
 20
10.97724
 10
7.57552
 20
10.964664
 10
7.588173
 20
10.952248
 10
7.601184
 20
10.939999
 10
7.614553
 20
10.92792
 10
7.628283
 20
10.916016
 10
7.642374
 20
10.904291
 10
7.65683
 20
10.89275
 10
7.665695
 20
10.885554
 10
7.674247
 20
10.87808
 10
7.682485
 20
10.870339
 10
7.690403
 20
10.862339
 10
7.697998
 20
10.854092
 10
7.705268
 20
10.845606
 10
7.712208
 20
10.836893
 10
7.718815
 20
10.827962
 10
7.725085
 20
10.818823
 10
7.731015
 20
10.809486
 10
7.736602
 20
10.799961
 10
7.741842
 20
10.790259
 10
7.746731
 20
10.780388
 10
7.751265
 20
10.77036
 10
7.755443
 20
10.760185
 10
7.759259
 20
10.749871
 10
7.76271
 20
10.73943
 10
7.765794
 20
10.728871
 10
7.768506
 20
10.718205
 10
7.770842
 20
10.707441
 10
7.7728
 20
10.696589
 10
7.774376
 20
10.68566
 10
7.775566
 20
10.674663
 10
7.776367
 20
10.663609
 10
7.776775
 20
10.652507
 10
7.776788
 20
10.641368
 10
7.7764
 20
10.630201
 10
7.775609
 20
10.619017
 10
7.774412
 20
10.607825
 10
7.772804
 20
10.596636
 10
7.770783
 20
10.585459
 10
7.768344
 20
10.574305
 10
7.752903
 20
10.508186
 10
7.73801
 20
10.442016
 10
7.723664
 20
10.375798
 10
7.709863
 20
10.309535
 10
7.696608
 20
10.243231
 10
7.683896
 20
10.176888
 10
7.671728
 20
10.110509
 10
7.660103
 20
10.044098
 10
7.649019
 20
9.977657
 10
7.638475
 20
9.911189
 10
7.628472
 20
9.844697
 10
7.619008
 20
9.778184
 10
7.610082
 20
9.711654
 10
7.601694
 20
9.645109
 10
7.593842
 20
9.578552
 10
7.586526
 20
9.511987
 10
7.579745
 20
9.445415
 10
7.573499
 20
9.378841
 10
7.567785
 20
9.312267
 10
7.562604
 20
9.245697
 10
7.557955
 20
9.179132
 10
7.553836
 20
9.112577
 10
7.550247
 20
9.046033
 10
7.547188
 20
8.979505
 10
7.544656
 20
8.912995
 10
7.542653
 20
8.846507
 10
7.541175
 20
8.780042
 10
7.540224
 20
8.713605
 10
7.539797
 20
8.647197
 10
7.539895
 20
8.580823
 10
7.540516
 20
8.514485
 10
7.541659
 20
8.448186
 10
7.543324
 20
8.38193
 10
7.54551
 20
8.315718
 10
7.548216
 20
8.249554
 10
7.551441
 20
8.183442
 10
7.555184
 20
8.117384
 10
7.559445
 20
8.051382
 10
7.564222
 20
7.985441
 10
7.569515
 20
7.919563
 10
7.575323
 20
7.853751
 10
7.581645
 20
7.788008
 10
7.58848
 20
7.722337
 10
7.595827
 20
7.656741
 10
7.603687
 20
7.591224
 10
7.612057
 20
7.525787
 10
7.620937
 20
7.460434
 10
7.630326
 20
7.395169
 10
7.640223
 20
7.329993
 10
7.650628
 20
7.26491
 10
7.661539
 20
7.199924
 10
7.672957
 20
7.135036
 10
7.684879
 20
7.070251
 10
7.697305
 20
7.00557
 10
7.710234
 20
6.940997
 10
7.723666
 20
6.876536
 10
7.737599
 20
6.812188
 10
7.752034
 20
6.747957
 10
7.766968
 20
6.683847
 10
7.782401
 20
6.619859
 10
7.798332
 20
6.555997
 10
7.814761
 20
6.492264
 10
7.831687
 20
6.428664
 10
7.849108
 20
6.365198
 10
7.867024
 20
6.30187
 10
7.885434
 20
6.238683
 10
7.904338
 20
6.175639
 10
7.923733
 20
6.112743
 10
7.943621
 20
6.049997
 10
7.963999
 20
5.987404
 10
7.984867
 20
5.924966
 10
8.006224
 20
5.862687
 10
8.02807
 20
5.800571
 10
8.050402
 20
5.738619
 10
8.073222
 20
5.676835
 10
8.096527
 20
5.615222
 10
8.120317
 20
5.553783
 10
8.144591
 20
5.49252
 10
8.169348
 20
5.431438
 10
8.194588
 20
5.370538
 10
8.220309
 20
5.309824
 10
8.246511
 20
5.249299
 10
8.273193
 20
5.188966
 10
8.300354
 20
5.128828
 10
8.327993
 20
5.068887
 10
8.356109
 20
5.009147
 10
8.384703
 20
4.949612
 10
8.413771
 20
4.890282
 10
8.443315
 20
4.831163
 10
8.473333
 20
4.772257
 10
8.503824
 20
4.713566
 10
8.534787
 20
4.655094
 10
8.566222
 20
4.596844
 10
8.598128
 20
4.538818
 10
8.630503
 20
4.481021
 10
8.663348
 20
4.423454
 10
8.696661
 20
4.366121
 10
8.730441
 20
4.309024
 10
8.764688
 20
4.252168
 10
8.7994
 20
4.195554
 10
8.834577
 20
4.139185
 10
8.870219
 20
4.083066
 10
8.906323
 20
4.027198
 10
8.94289
 20
3.971585
 10
8.979918
 20
3.91623
 10
9.017408
 20
3.861135
 10
9.055357
 20
3.806304
 10
9.093765
 20
3.75174
 10
9.132631
 20
3.697445
 10
9.171955
 20
3.643423
 10
9.211735
 20
3.589677
 10
9.251971
 20
3.536209
 10
9.292661
 20
3.483023
 10
9.333806
 20
3.430122
 10
9.375404
 20
3.377509
 10
9.417454
 20
3.325186
 10
9.459956
 20
3.273156
 10
9.502909
 20
3.221423
 10
9.546311
 20
3.16999
 10
9.590162
 20
3.11886
 10
9.634462
 20
3.068035
 10
9.679209
 20
3.017519
 10
9.724402
 20
2.967314
 10
9.770042
 20
2.917424
 10
9.816126
 20
2.867851
 10
9.862654
 20
2.818599
 10
9.909625
 20
2.769671
 10
9.957038
 20
2.721069
 10
9.964895
 20
2.712784
 10
9.972406
 20
2.704264
 10
9.97957
 20
2.695519
 10
9.986384
 20
2.68656
 10
9.992846
 20
2.677396
 10
9.998953
 20
2.668039
 10
10.004705
 20
2.658499
 10
10.010097
 20
2.648786
 10
10.01513
 20
2.638911
 10
10.019799
 20
2.628884
 10
10.024103
 20
2.618715
 10
10.02804
 20
2.608415
 10
10.031608
 20
2.597994
 10
10.034804
 20
2.587462
 10
10.037627
 20
2.57683
 10
10.040073
 20
2.566109
 10
10.042142
 20
2.555309
 10
10.04383
 20
2.544439
 10
10.045135
 20
2.533511
 10
10.046056
 20
2.522535
 10
10.046591
 20
2.511521
 10
10.046736
 20
2.500479
 10
10.04649
 20
2.489421
 10
10.045851
 20
2.478356
 10
10.044816
 20
2.467295
 10
10.043384
 20
2.456248
 10
10.041552
 20
2.445226
 10
10.039317
 20
2.434239
 10
10.036679
 20
2.423297
 10
10.033634
 20
2.412411
 10
10.03018
 20
2.401591
 10
10.026316
 20
2.390847
 10
10.019913
 20
2.373493
 10
10.013917
 20
2.356169
 10
10.008323
 20
2.33888
 10
10.003129
 20
2.321627
 10
9.998329
 20
2.304414
 10
9.993921
 20
2.287244
 10
9.9899
 20
2.270119
 10
9.986264
 20
2.253043
 10
9.983007
 20
2.236019
 10
9.980128
 20
2.219049
 10
9.977621
 20
2.202137
 10
9.975483
 20
2.185285
 10
9.973711
 20
2.168497
 10
9.972301
 20
2.151775
 10
9.971248
 20
2.135122
 10
9.97055
 20
2.118541
 10
9.970202
 20
2.102036
 10
9.970201
 20
2.085608
 10
9.970544
 20
2.069262
 10
9.971225
 20
2.053
 10
9.972242
 20
2.036825
 10
9.973592
 20
2.020739
 10
9.975269
 20
2.004747
 10
9.977271
 20
1.988851
 10
9.979594
 20
1.973053
 10
9.982233
 20
1.957357
 10
9.985186
 20
1.941765
 10
9.988449
 20
1.926282
 10
9.992018
 20
1.910909
 10
9.995889
 20
1.895649
 10
10.000058
 20
1.880506
 10
10.004522
 20
1.865483
 10
10.009277
 20
1.850581
 10
10.01432
 20
1.835806
 10
10.019646
 20
1.821158
 10
10.025252
 20
1.806642
 10
10.031134
 20
1.79226
 10
10.037288
 20
1.778015
 10
10.050399
 20
1.749948
 10
10.064556
 20
1.722466
 10
10.079728
 20
1.695591
 10
10.095885
 20
1.669347
 10
10.112999
 20
1.643758
 10
10.131038
 20
1.618847
 10
10.149974
 20
1.594639
 10
10.169776
 20
1.571156
 10
10.190415
 20
1.548423
 10
10.211861
 20
1.526462
 10
10.234085
 20
1.505298
 10
10.257056
 20
1.484953
 10
10.280745
 20
1.465453
 10
10.305122
 20
1.44682
 10
10.330157
 20
1.429077
 10
10.355821
 20
1.412249
 10
10.382084
 20
1.39636
 10
10.408915
 20
1.381432
 10
10.436286
 20
1.367489
 10
10.464167
 20
1.354555
 10
10.492527
 20
1.342654
 10
10.521338
 20
1.331809
 10
10.550568
 20
1.322043
 10
10.580189
 20
1.313381
 10
10.610171
 20
1.305846
 10
10.625288
 20
1.302508
 10
10.640484
 20
1.299461
 10
10.655755
 20
1.296708
 10
10.671098
 20
1.294251
 10
10.686509
 20
1.292093
 10
10.701984
 20
1.290238
 10
10.717519
 20
1.288688
 10
10.733111
 20
1.287447
 10
10.748756
 20
1.286516
 10
10.76445
 20
1.2859
 10
10.78019
 20
1.285601
 10
10.795972
 20
1.285622
 10
10.811792
 20
1.285967
 10
10.827646
 20
1.286637
 10
10.843531
 20
1.287636
 10
10.859443
 20
1.288967
 10
10.875378
 20
1.290633
 10
10.891333
 20
1.292636
 10
10.907303
 20
1.294981
 10
10.923286
 20
1.297669
 10
10.939277
 20
1.300704
 10
10.955272
 20
1.304088
 10
10.971269
 20
1.307825
 10
10.987262
 20
1.311918
 10
11.00325
 20
1.316368
 10
11.019226
 20
1.321181
 10
11.035189
 20
1.326357
 10
11.051135
 20
1.331901
 10
11.067059
 20
1.337815
 10
11.082958
 20
1.344103
 10
11.098828
 20
1.350766
 10
11.114665
 20
1.357809
 10
11.130466
 20
1.365234
 10
11.146227
 20
1.373044
 10
11.161945
 20
1.381241
 10
11.177615
 20
1.38983
 10
11.193234
 20
1.398812
 10
11.208798
 20
1.408192
 10
11.224304
 20
1.417971
 10
11.239747
 20
1.428153
 10
11.24933
 20
1.43436
 10
11.259082
 20
1.440184
 10
11.26899
 20
1.445626
 10
11.279046
 20
1.450685
 10
11.289237
 20
1.45536
 10
11.299554
 20
1.459651
 10
11.309985
 20
1.463559
 10
11.320521
 20
1.467083
 10
11.331151
 20
1.470222
 10
11.341863
 20
1.472977
 10
11.352648
 20
1.475347
 10
11.363495
 20
1.477332
 10
11.374392
 20
1.478931
 10
11.385331
 20
1.480146
 10
11.396299
 20
1.480974
 10
11.407287
 20
1.481416
 10
11.418283
 20
1.481473
 10
11.429278
 20
1.481142
 10
11.44026
 20
1.480425
 10
11.451219
 20
1.479321
 10
11.462144
 20
1.47783
 10
11.473025
 20
1.475952
 10
11.483851
 20
1.473686
 10
11.494612
 20
1.471031
 10
11.505297
 20
1.467989
 10
11.515894
 20
1.464559
 10
11.526395
 20
1.460739
 10
11.536787
 20
1.456531
 10
11.547061
 20
1.451934
 10
11.557206
 20
1.446947
 10
11.567211
 20
1.441571
 10
11.577066
 20
1.435805
 10
11.635178
 20
1.400688
 10
11.693507
 20
1.366076
 10
11.75205
 20
1.33197
 10
11.810805
 20
1.298368
 10
11.869768
 20
1.265272
 10
11.928935
 20
1.232681
 10
11.988305
 20
1.200596
 10
12.047873
 20
1.169017
 10
12.107637
 20
1.137944
 10
12.167594
 20
1.107377
 10
12.22774
 20
1.077316
 10
12.288072
 20
1.047762
 10
12.348588
 20
1.018714
 10
12.409284
 20
0.990173
 10
12.470157
 20
0.962138
 10
12.531203
 20
0.93461
 10
12.592421
 20
0.907589
 10
12.653806
 20
0.881076
 10
12.715356
 20
0.855069
 10
12.777067
 20
0.82957
 10
12.838937
 20
0.804579
 10
12.900962
 20
0.780095
 10
12.96314
 20
0.756119
 10
13.025466
 20
0.732651
 10
13.087938
 20
0.70969
 10
13.150554
 20
0.687239
 10
13.213309
 20
0.665295
 10
13.2762
 20
0.64386
 10
13.339226
 20
0.622933
 10
13.402381
 20
0.602515
 10
13.465664
 20
0.582606
 10
13.529072
 20
0.563206
 10
13.5926
 20
0.544315
 10
13.656246
 20
0.525934
 10
13.720008
 20
0.508061
 10
13.783881
 20
0.490699
 10
13.847863
 20
0.473845
 10
13.91195
 20
0.457502
 10
13.97614
 20
0.441668
 10
14.04043
 20
0.426345
 10
14.104816
 20
0.411532
 10
14.169294
 20
0.397228
 10
14.233863
 20
0.383436
 10
14.298519
 20
0.370154
 10
14.363259
 20
0.357382
 10
14.42808
 20
0.345122
 10
14.492978
 20
0.333372
 10
14.557951
 20
0.322133
 10
14.622995
 20
0.311406
 10
14.688107
 20
0.30119
 10
14.753285
 20
0.291486
 10
14.818525
 20
0.282293
 10
14.883824
 20
0.273611
 10
14.949179
 20
0.265442
 10
15.014587
 20
0.257785
 10
15.080044
 20
0.250639
 10
15.145548
 20
0.244007
 10
15.211096
 20
0.237886
 10
15.276683
 20
0.232278
 10
15.342309
 20
0.227183
 10
15.407968
 20
0.2226
 10
15.473658
 20
0.21853
 10
15.539377
 20
0.214974
 10
15.60512
 20
0.21193
 10
15.670885
 20
0.2094
 10
15.736669
 20
0.207384
 10
15.802468
 20
0.20588
 10
15.868279
 20
0.204891
 10
15.9341
 20
0.204416
 10
15.999928
 20
0.204454
 10
16.065758
 20
0.205007
 10
16.131588
 20
0.206073
 10
16.197416
 20
0.207655
 10
16.263237
 20
0.20975
 10
16.329048
 20
0.212361
 10
16.394848
 20
0.215486
 10
16.460632
 20
0.219126
 10
16.526397
 20
0.223281
 10
16.59214
 20
0.227951
 10
16.657859
 20
0.233136
 10
16.72355
 20
0.238837
 10
16.789209
 20
0.245053
 10
16.854835
 20
0.251785
 10
16.920423
 20
0.259033
 10
16.985971
 20
0.266797
 10
17.051476
 20
0.275077
 10
17.116934
 20
0.283873
 10
17.182342
 20
0.293186
 10
17.247697
 20
0.303015
 10
17.312997
 20
0.31336
 10
17.378238
 20
0.324223
 10
17.443416
 20
0.335602
 10
17.508529
 20
0.347498
 10
17.573574
 20
0.359911
 10
17.638548
 20
0.372842
 10
17.703447
 20
0.38629
 10
17.768268
 20
0.400255
 10
17.833009
 20
0.414738
 10
17.897666
 20
0.429739
 10
17.962236
 20
0.445258
 10
18.026716
 20
0.461295
 10
18.091103
 20
0.47785
 10
18.155393
 20
0.494924
 10
18.219584
 20
0.512515
 10
18.283673
 20
0.530626
 10
18.347656
 20
0.549255
 10
18.411531
 20
0.568403
 10
18.475293
 20
0.58807
 10
18.538941
 20
0.608256
 10
18.602471
 20
0.628961
 10
18.665879
 20
0.650186
 10
18.729164
 20
0.67193
 10
18.792321
 20
0.694194
 10
18.855348
 20
0.716978
 10
18.918241
 20
0.740281
 10
18.980997
 20
0.764105
 10
19.043614
 20
0.788448
 10
19.106088
 20
0.813312
 10
19.168416
 20
0.838697
 10
19.230595
 20
0.864602
 10
19.292622
 20
0.891027
 10
19.354493
 20
0.917974
 10
19.416207
 20
0.945441
 10
19.477758
 20
0.97343
 10
19.539146
 20
1.001939
 10
19.600365
 20
1.03097
 10
19.661414
 20
1.060523
 10
19.722288
 20
1.090597
 10
19.732595
 20
1.095508
 10
19.743019
 20
1.100018
 10
19.753549
 20
1.104128
 10
19.764175
 20
1.107839
 10
19.774886
 20
1.111152
 10
19.785672
 20
1.114069
 10
19.796523
 20
1.11659
 10
19.807426
 20
1.118717
 10
19.818373
 20
1.120451
 10
19.829353
 20
1.121793
 10
19.840354
 20
1.122744
 10
19.851367
 20
1.123305
 10
19.86238
 20
1.123478
 10
19.873384
 20
1.123263
 10
19.884367
 20
1.122662
 10
19.89532
 20
1.121675
 10
19.906231
 20
1.120305
 10
19.91709
 20
1.118551
 10
19.927887
 20
1.116416
 10
19.93861
 20
1.1139
 10
19.94925
 20
1.111004
 10
19.959795
 20
1.10773
 10
19.970236
 20
1.104079
 10
19.980562
 20
1.100052
 10
19.990761
 20
1.09565
 10
20.000825
 20
1.090874
 10
20.010741
 20
1.085725
 10
20.020499
 20
1.080205
 10
20.03009
 20
1.074314
 10
20.039502
 20
1.068054
 10
20.048724
 20
1.061426
 10
20.057747
 20
1.05443
 10
20.072273
 20
1.042978
 10
20.086896
 20
1.031923
 10
20.101611
 20
1.02126
 10
20.116414
 20
1.010988
 10
20.131302
 20
1.001105
 10
20.146269
 20
0.991607
 10
20.161314
 20
0.982491
 10
20.17643
 20
0.973756
 10
20.191615
 20
0.965399
 10
20.206865
 20
0.957416
 10
20.222175
 20
0.949806
 10
20.237541
 20
0.942566
 10
20.252961
 20
0.935693
 10
20.268429
 20
0.929184
 10
20.283941
 20
0.923037
 10
20.299495
 20
0.917249
 10
20.315085
 20
0.911818
 10
20.330708
 20
0.906741
 10
20.34636
 20
0.902016
 10
20.362037
 20
0.897639
 10
20.377735
 20
0.893608
 10
20.39345
 20
0.88992
 10
20.409179
 20
0.886574
 10
20.424916
 20
0.883566
 10
20.440658
 20
0.880893
 10
20.456402
 20
0.878553
 10
20.472143
 20
0.876544
 10
20.487877
 20
0.874862
 10
20.5036
 20
0.873506
 10
20.519309
 20
0.872472
 10
20.534999
 20
0.871758
 10
20.550667
 20
0.871361
 10
20.566309
 20
0.871279
 10
20.58192
 20
0.871508
 10
20.597496
 20
0.872047
 10
20.613034
 20
0.872893
 10
20.62853
 20
0.874043
 10
20.64398
 20
0.875494
 10
20.674724
 20
0.879291
 10
20.705237
 20
0.884262
 10
20.735485
 20
0.890386
 10
20.765437
 20
0.897643
 10
20.795062
 20
0.906011
 10
20.824327
 20
0.91547
 10
20.853203
 20
0.925998
 10
20.881655
 20
0.937575
 10
20.909654
 20
0.950178
 10
20.937167
 20
0.963789
 10
20.964163
 20
0.978384
 10
20.99061
 20
0.993944
 10
21.016476
 20
1.010448
 10
21.04173
 20
1.027873
 10
21.06634
 20
1.046201
 10
21.090275
 20
1.065408
 10
21.113502
 20
1.085475
 10
21.135991
 20
1.10638
 10
21.157709
 20
1.128103
 10
21.178625
 20
1.150622
 10
21.198708
 20
1.173917
 10
21.217925
 20
1.197965
 10
21.236245
 20
1.222747
 10
21.253636
 20
1.248242
 10
21.270067
 20
1.274428
 10
21.277913
 20
1.287773
 10
21.285506
 20
1.301284
 10
21.292844
 20
1.314957
 10
21.299922
 20
1.32879
 10
21.306736
 20
1.342779
 10
21.313282
 20
1.356923
 10
21.319557
 20
1.371219
 10
21.325555
 20
1.385665
 10
21.331275
 20
1.400257
 10
21.33671
 20
1.414992
 10
21.341858
 20
1.429869
 10
21.346715
 20
1.444885
 10
21.351276
 20
1.460037
 10
21.355537
 20
1.475323
 10
21.359496
 20
1.490739
 10
21.363147
 20
1.506283
 10
21.366486
 20
1.521953
 10
21.369511
 20
1.537746
 10
21.372216
 20
1.553659
 10
21.374598
 20
1.56969
 10
21.376653
 20
1.585836
 10
21.378377
 20
1.602095
 10
21.379766
 20
1.618463
 10
21.380816
 20
1.634939
 10
21.381523
 20
1.651519
 10
21.381883
 20
1.668201
 10
21.381893
 20
1.684983
 10
21.381547
 20
1.701861
 10
21.380843
 20
1.718833
 10
21.379776
 20
1.735897
 10
21.378343
 20
1.753049
 10
21.376539
 20
1.770288
 10
21.37436
 20
1.78761
 10
21.371803
 20
1.805013
 10
21.368863
 20
1.822495
 10
21.365537
 20
1.840052
 10
21.36182
 20
1.857683
 10
21.357709
 20
1.875383
 10
21.3532
 20
1.893152
1001
ACAD
1000
TCW40_DEV_WIDTH
1002
{
1040
-3.0
1002
}
  0
LWPOLYLINE
  5
47
100
AcDbEntity
  8
0
100
AcDbPolyline
 90
        4
 70
         129
 10
13.831234
 20
10.335383
 42
-0.414214
 10
17.694756
 20
10.780572
 42
-0.414214
 10
18.139945
 20
6.917049
 42
-0.414214
 10
14.276422
 20
6.471861
 42
-0.414214
  0
LWPOLYLINE
  5
48
100
AcDbEntity
  8
0
100
AcDbPolyline
 90
        4
 70
         129
 10
19.156052
 20
8.485566
 42
-0.414214
 10
19.287763
 20
8.500743
 42
-0.414214
 10
19.30294
 20
8.369032
 42
-0.414214
 10
19.171229
 20
8.353855
 42
-0.414214
  0
LWPOLYLINE
  5
49
100
AcDbEntity
  8
0
100
AcDbPolyline
 90
        4
 70
         129
 10
16.725386
 20
5.537876
 42
-0.414214
 10
16.857097
 20
5.553053
 42
-0.414214
 10
16.872274
 20
5.421342
 42
-0.414214
 10
16.740563
 20
5.406165
 42
-0.414214
  0
LWPOLYLINE
  5
4A
100
AcDbEntity
  8
0
100
AcDbPolyline
 90
        4
 70
         129
 10
13.170849
 20
6.93869
 42
-0.414214
 10
13.30256
 20
6.953867
 42
-0.414214
 10
13.317737
 20
6.822156
 42
-0.414214
 10
13.186026
 20
6.806979
 42
-0.414214
  0
LWPOLYLINE
  5
4B
100
AcDbEntity
  8
0
100
AcDbPolyline
 90
        4
 70
         129
 10
13.40469
 20
10.752132
 42
-0.414214
 10
13.536401
 20
10.767308
 42
-0.414214
 10
13.551578
 20
10.635597
 42
-0.414214
 10
13.419867
 20
10.620421
 42
-0.414214
  0
LWPOLYLINE
  5
4C
100
AcDbEntity
  8
0
100
AcDbPolyline
 90
        4
 70
         129
 10
17.103749
 20
11.708153
 42
-0.414214
 10
17.23546
 20
11.72333
 42
-0.414214
 10
17.250637
 20
11.591619
 42
-0.414214
 10
17.118926
 20
11.576442
 42
-0.414214
  0
LWPOLYLINE
  5
4D
100
AcDbEntity
  8
0
100
AcDbPolyline
 90
        4
 70
         129
 10
16.264791
 20
17.005072
 42
-0.414214
 10
16.396502
 20
17.020249
 42
-0.414214
 10
16.411679
 20
16.888538
 42
-0.414214
 10
16.279968
 20
16.873361
 42
-0.414214
  0
LWPOLYLINE
  5
4E
100
AcDbEntity
  8
0
100
AcDbPolyline
 90
        4
 70
         129
 10
8.107768
 20
11.591073
 42
-0.414214
 10
8.239479
 20
11.60625
 42
-0.414214
 10
8.254656
 20
11.474539
 42
-0.414214
 10
8.122945
 20
11.459362
 42
-0.414214
  0
LWPOLYLINE
  5
4F
100
AcDbEntity
  8
0
100
AcDbPolyline
 90
        4
 70
         129
 10
10.736129
 20
2.160266
 42
-0.414214
 10
10.86784
 20
2.175442
 42
-0.414214
 10
10.883017
 20
2.043731
 42
-0.414214
 10
10.751306
 20
2.028555
 42
-0.414214
  0
LWPOLYLINE
  5
50
100
AcDbEntity
  8
0
100
AcDbPolyline
 90
        4
 70
         129
 10
20.517568
 20
1.745705
 42
-0.414214
 10
20.649279
 20
1.760882
 42
-0.414214
 10
20.664456
 20
1.629171
 42
-0.414214
 10
20.532745
 20
1.613994
 42
-0.414214
  0
LWPOLYLINE
  5
51
100
AcDbEntity
  8
0
100
AcDbPolyline
 90
        4
 70
         129
 10
23.934469
 20
10.9203
 42
-0.414214
 10
24.06618
 20
10.935477
 42
-0.414214
 10
24.081357
 20
10.803766
 42
-0.414214
 10
23.949646
 20
10.788589
 42
-0.414214
  0
LWPOLYLINE
  5
52
100
AcDbEntity
  8
0
100
AcDbPolyline
 90
        4
 70
         129
 10
22.135813
 20
16.529236
 42
-0.414214
 10
22.267524
 20
16.544413
 42
-0.414214
 10
22.282701
 20
16.412702
 42
-0.414214
 10
22.15099
 20
16.397525
 42
-0.414214
  0
LWPOLYLINE
  5
53
100
AcDbEntity
  8
0
 62
           7
100
AcDbPolyline
 90
        4
 70
         129
 10
23.0958344044
 20
8.792488169993
 42
-0.414214
 10
23.2265704044
 20
8.814537169993
 42
-0.414214
 10
23.2486194044
 20
8.683801169993
 42
-0.414214
 10
23.1178834044
 20
8.661751169993
 42
-0.414214
  0
LWPOLYLINE
  5
54
100
AcDbEntity
  8
0
100
AcDbPolyline
 90
        4
 70
         129
 10
23.229537
 20
17.62956
 42
0.414214
 10
23.104537
 20
17.75456
 42
0.414214
 10
22.979537
 20
17.62956
 42
0.414214
 10
23.104537
 20
17.50456
 42
0.414214
  0
LWPOLYLINE
  5
55
100
AcDbEntity
  8
0
100
AcDbPolyline
 90
        4
 70
         129
 10
21.391237
 20
15.31236
 42
0.414214
 10
21.266237
 20
15.43736
 42
0.414214
 10
21.141237
 20
15.31236
 42
0.414214
 10
21.266237
 20
15.18736
 42
0.414214
  0
LWPOLYLINE
  5
56
100
AcDbEntity
  8
0
100
AcDbPolyline
 90
       48
 70
         129
 10
5.628436
 20
17.935492
 42
0.173574
 10
5.487708
 20
17.886529
 10
5.418427
 20
17.805729
 42
0.080147
 10
5.336168
 20
17.847397
 10
5.360324
 20
17.951055
 42
0.173574
 10
5.316545
 20
18.093481
 42
0.027069
 10
5.259764
 20
18.097815
 42
0.173574
 10
5.194877
 20
17.963683
 10
5.203021
 20
17.85756
 42
0.080147
 10
5.115392
 20
17.828858
 10
5.059176
 20
17.919236
 42
0.173574
 10
4.927509
 20
17.988989
 42
0.027069
 10
4.884294
 20
17.951903
 42
0.173574
 10
4.933257
 20
17.811176
 10
5.014057
 20
17.741894
 42
0.080147
 10
4.972389
 20
17.659636
 10
4.868731
 20
17.683792
 42
0.173574
 10
4.726305
 20
17.640013
 42
0.027069
 10
4.721971
 20
17.583231
 42
0.173574
 10
4.856103
 20
17.518344
 10
4.962226
 20
17.526489
 42
0.080147
 10
4.990928
 20
17.438859
 10
4.90055
 20
17.382643
 42
0.173574
 10
4.830797
 20
17.250976
 42
0.027069
 10
4.867883
 20
17.207761
 42
0.173574
 10
5.00861
 20
17.256725
 10
5.077892
 20
17.337524
 42
0.080147
 10
5.16015
 20
17.295856
 10
5.135994
 20
17.192198
 42
0.173574
 10
5.179773
 20
17.049773
 42
0.027069
 10
5.236555
 20
17.045439
 42
0.173574
 10
5.301442
 20
17.179571
 10
5.293297
 20
17.285694
 42
0.080147
 10
5.380927
 20
17.314396
 10
5.437143
 20
17.224018
 42
0.173574
 10
5.56881
 20
17.154264
 42
0.027069
 10
5.612025
 20
17.19135
 42
0.173574
 10
5.563061
 20
17.332078
 10
5.482262
 20
17.401359
 42
0.080147
 10
5.52393
 20
17.483617
 10
5.627588
 20
17.459462
 42
0.173574
 10
5.770013
 20
17.503241
 42
0.027069
 10
5.774347
 20
17.560022
 42
0.173574
 10
5.640215
 20
17.624909
 10
5.534092
 20
17.616765
 42
0.080147
 10
5.50539
 20
17.704394
 10
5.595768
 20
17.76061
 42
0.173574
 10
5.665522
 20
17.892277
 42
0.02707
  0
LWPOLYLINE
  5
57
100
AcDbEntity
  8
0
100
AcDbPolyline
 90
        4
 70
         129
 10
5.248159
 20
17.665377
 42
-0.414214
 10
5.341909
 20
17.571627
 42
-0.414214
 10
5.248159
 20
17.477877
 42
-0.414214
 10
5.154409
 20
17.571627
 42
-0.414214
  0
LWPOLYLINE
  5
58
100
AcDbEntity
  8
0
100
AcDbPolyline
 90
       48
 70
         129
 10
8.387558
 20
17.322403
 42
0.173574
 10
8.297504
 20
17.441112
 10
8.19925
 20
17.482034
 42
0.080147
 10
8.213459
 20
17.573143
 10
8.319508
 20
17.582201
 42
0.173574
 10
8.441435
 20
17.66785
 42
0.027069
 10
8.42801
 20
17.723191
 42
0.173574
 10
8.280392
 20
17.743453
 10
8.18198
 20
17.702914
 42
0.080147
 10
8.127604
 20
17.777385
 10
8.196186
 20
17.858778
 42
0.173574
 10
8.221839
 20
18.005556
 42
0.027069
 10
8.173214
 20
18.035195
 42
0.173574
 10
8.054504
 20
17.945141
 10
8.013582
 20
17.846887
 42
0.080147
 10
7.922474
 20
17.861096
 10
7.913415
 20
17.967145
 42
0.173574
 10
7.827767
 20
18.089072
 42
0.027069
 10
7.772425
 20
18.075647
 42
0.173574
 10
7.752163
 20
17.928029
 10
7.792703
 20
17.829617
 42
0.080147
 10
7.718232
 20
17.775241
 10
7.636838
 20
17.843823
 42
0.173574
 10
7.490061
 20
17.869476
 42
0.027069
 10
7.460421
 20
17.820851
 42
0.173574
 10
7.550476
 20
17.702141
 10
7.648729
 20
17.661219
 42
0.080147
 10
7.63452
 20
17.570111
 10
7.528471
 20
17.561052
 42
0.173574
 10
7.406545
 20
17.475404
 42
0.027069
 10
7.419969
 20
17.420062
 42
0.173574
 10
7.567588
 20
17.3998
 10
7.666
 20
17.44034
 42
0.080147
 10
7.720376
 20
17.365869
 10
7.651793
 20
17.284475
 42
0.173574
 10
7.626141
 20
17.137698
 42
0.027069
 10
7.674766
 20
17.108058
 42
0.173574
 10
7.793475
 20
17.198113
 10
7.834397
 20
17.296366
 42
0.080147
 10
7.925506
 20
17.282157
 10
7.934564
 20
17.176108
 42
0.173574
 10
8.020213
 20
17.054182
 42
0.027069
 10
8.075554
 20
17.067606
 42
0.173574
 10
8.095816
 20
17.215225
 10
8.055277
 20
17.313637
 42
0.080147
 10
8.129748
 20
17.368013
 10
8.211141
 20
17.29943
 42
0.173574
 10
8.357918
 20
17.273778
 42
0.02707
  0
LWPOLYLINE
  5
59
100
AcDbEntity
  8
0
100
AcDbPolyline
 90
        4
 70
         129
 10
7.92399
 20
17.665377
 42
-0.414214
 10
8.01774
 20
17.571627
 42
-0.414214
 10
7.92399
 20
17.477877
 42
-0.414214
 10
7.83024
 20
17.571627
 42
-0.414214
  0
LWPOLYLINE
  5
5A
100
AcDbEntity
  8
0
100
AcDbPolyline
 90
       48
 70
         129
 10
12.386358
 20
17.053732
 42
0.173574
 10
12.471429
 20
17.176062
 10
12.479986
 20
17.282153
 42
0.080147
 10
12.571026
 20
17.296793
 10
12.612412
 20
17.198734
 42
0.173574
 10
12.731546
 20
17.109242
 42
0.027069
 10
12.780031
 20
17.139111
 42
0.173574
 10
12.753685
 20
17.285766
 10
12.684718
 20
17.366834
 42
0.080147
 10
12.738741
 20
17.441561
 10
12.837344
 20
17.401487
 42
0.173574
 10
12.984865
 20
17.422447
 42
0.027069
 10
12.998028
 20
17.477851
 42
0.173574
 10
12.875698
 20
17.562922
 10
12.769607
 20
17.571479
 42
0.080147
 10
12.754967
 20
17.66252
 10
12.853026
 20
17.703906
 42
0.173574
 10
12.942518
 20
17.823039
 42
0.027069
 10
12.912649
 20
17.871524
 42
0.173574
 10
12.765995
 20
17.845178
 10
12.684926
 20
17.776211
 42
0.080147
 10
12.610199
 20
17.830234
 10
12.650273
 20
17.928837
 42
0.173574
 10
12.629313
 20
18.076358
 42
0.027069
 10
12.573909
 20
18.089521
 42
0.173574
 10
12.488838
 20
17.967191
 10
12.480281
 20
17.8611
 42
0.080147
 10
12.38924
 20
17.84646
 10
12.347854
 20
17.94452
 42
0.173574
 10
12.228721
 20
18.034012
 42
0.027069
 10
12.180236
 20
18.004142
 42
0.173574
 10
12.206582
 20
17.857488
 10
12.275549
 20
17.77642
 42
0.080147
 10
12.221526
 20
17.701692
 10
12.122923
 20
17.741766
 42
0.173574
 10
11.975402
 20
17.720807
 42
0.027069
 10
11.962239
 20
17.665402
 42
0.173574
 10
12.084569
 20
17.580331
 10
12.19066
 20
17.571774
 42
0.080147
 10
12.2053
 20
17.480734
 10
12.10724
 20
17.439348
 42
0.173574
 10
12.017748
 20
17.320214
 42
0.027069
 10
12.047618
 20
17.271729
 42
0.173574
 10
12.194272
 20
17.298075
 10
12.27534
 20
17.367042
 42
0.080147
 10
12.350068
 20
17.313019
 10
12.309994
 20
17.214416
 42
0.173574
 10
12.330953
 20
17.066895
 42
0.02707
  0
LWPOLYLINE
  5
5B
100
AcDbEntity
  8
0
100
AcDbPolyline
 90
        4
 70
         129
 10
12.480133
 20
17.665377
 42
-0.414214
 10
12.573883
 20
17.571627
 42
-0.414214
 10
12.480133
 20
17.477877
 42
-0.414214
 10
12.386383
 20
17.571627
 42
-0.414214
  0
LWPOLYLINE
  5
5C
100
AcDbEntity
  8
0
100
AcDbPolyline
 90
      368
 70
         129
 10
9.644377
 20
17.500774
 10
9.652194
 20
17.495246
 10
9.660216
 20
17.490077
 10
9.668431
 20
17.485273
 10
9.676826
 20
17.480836
 10
9.685388
 20
17.476771
 10
9.694104
 20
17.473081
 10
9.702963
 20
17.469771
 10
9.711951
 20
17.466843
 10
9.721056
 20
17.464302
 10
9.730266
 20
17.462153
 10
9.739567
 20
17.460397
 10
9.748947
 20
17.45904
 10
9.758394
 20
17.458084
 10
9.767895
 20
17.457535
 10
9.777437
 20
17.457395
 10
9.787008
 20
17.457669
 10
9.89055
 20
17.482315
 10
9.894347
 20
17.471363
 10
9.898573
 20
17.460585
 10
9.903223
 20
17.449993
 10
9.90829
 20
17.439599
 10
9.913769
 20
17.429416
 10
9.919652
 20
17.419456
 10
9.925933
 20
17.409731
 10
9.932607
 20
17.400254
 10
9.852136
 20
17.330592
 10
9.846325
 20
17.322982
 10
9.840866
 20
17.315154
 10
9.835764
 20
17.307121
 10
9.831023
 20
17.298894
 10
9.826647
 20
17.290487
 10
9.822641
 20
17.281911
 10
9.819008
 20
17.27318
 10
9.815754
 20
17.264305
 10
9.812881
 20
17.255299
 10
9.810396
 20
17.246174
 10
9.808301
 20
17.236943
 10
9.806601
 20
17.227619
 10
9.805301
 20
17.218214
 10
9.804404
 20
17.208739
 10
9.803915
 20
17.199209
 10
9.803838
 20
17.189634
 10
9.814308
 20
17.179976
 10
9.825034
 20
17.170606
 10
9.836009
 20
17.16153
 10
9.847228
 20
17.152753
 10
9.856665
 20
17.154371
 10
9.865993
 20
17.156389
 10
9.875199
 20
17.1588
 10
9.884272
 20
17.161599
 10
9.8932
 20
17.164779
 10
9.901973
 20
17.168333
 10
9.910578
 20
17.172257
 10
9.919003
 20
17.176542
 10
9.927238
 20
17.181184
 10
9.935271
 20
17.186176
 10
9.943089
 20
17.191511
 10
9.950681
 20
17.197184
 10
9.958037
 20
17.203189
 10
9.965143
 20
17.209518
 10
9.971989
 20
17.216167
 10
9.978564
 20
17.223128
 10
10.034352
 20
17.313771
 10
10.04478
 20
17.308711
 10
10.05539
 20
17.304078
 10
10.066168
 20
17.299877
 10
10.0771
 20
17.29611
 10
10.088175
 20
17.292783
 10
10.099378
 20
17.289901
 10
10.110696
 20
17.287466
 10
10.122116
 20
17.285484
 10
10.114473
 20
17.179323
 10
10.115745
 20
17.169833
 10
10.11742
 20
17.160438
 10
10.119493
 20
17.15115
 10
10.121958
 20
17.141981
 10
10.124808
 20
17.132941
 10
10.128039
 20
17.124045
 10
10.131645
 20
17.115302
 10
10.135619
 20
17.106725
 10
10.139956
 20
17.098326
 10
10.144651
 20
17.090116
 10
10.149697
 20
17.082108
 10
10.155088
 20
17.074313
 10
10.160819
 20
17.066743
 10
10.166884
 20
17.059409
 10
10.173278
 20
17.052324
 10
10.179994
 20
17.0455
 10
10.194227
 20
17.046074
 10
10.208436
 20
17.047032
 10
10.222615
 20
17.048375
 10
10.236754
 20
17.050102
 10
10.242283
 20
17.057919
 10
10.247451
 20
17.065941
 10
10.252256
 20
17.074156
 10
10.256693
 20
17.082551
 10
10.260758
 20
17.091113
 10
10.264447
 20
17.099829
 10
10.267758
 20
17.108688
 10
10.270685
 20
17.117676
 10
10.273226
 20
17.126781
 10
10.275376
 20
17.135991
 10
10.277131
 20
17.145292
 10
10.278489
 20
17.154672
 10
10.279444
 20
17.164119
 10
10.279993
 20
17.17362
 10
10.280133
 20
17.183162
 10
10.279859
 20
17.192733
 10
10.255214
 20
17.296275
 10
10.266165
 20
17.300072
 10
10.276943
 20
17.304298
 10
10.287536
 20
17.308948
 10
10.297929
 20
17.314015
 10
10.308112
 20
17.319494
 10
10.318073
 20
17.325377
 10
10.327797
 20
17.331658
 10
10.337274
 20
17.338332
 10
10.406937
 20
17.257861
 10
10.414546
 20
17.25205
 10
10.422374
 20
17.246591
 10
10.430408
 20
17.241489
 10
10.438634
 20
17.236748
 10
10.447042
 20
17.232372
 10
10.455617
 20
17.228366
 10
10.464349
 20
17.224733
 10
10.473224
 20
17.221479
 10
10.48223
 20
17.218606
 10
10.491354
 20
17.216121
 10
10.500585
 20
17.214026
 10
10.509909
 20
17.212326
 10
10.519315
 20
17.211026
 10
10.528789
 20
17.210129
 10
10.53832
 20
17.20964
 10
10.547894
 20
17.209563
 10
10.557553
 20
17.220033
 10
10.566922
 20
17.230759
 10
10.575998
 20
17.241734
 10
10.584776
 20
17.252953
 10
10.583157
 20
17.26239
 10
10.581139
 20
17.271718
 10
10.578728
 20
17.280924
 10
10.575929
 20
17.289997
 10
10.57275
 20
17.298925
 10
10.569195
 20
17.307698
 10
10.565272
 20
17.316303
 10
10.560986
 20
17.324728
 10
10.556344
 20
17.332963
 10
10.551353
 20
17.340996
 10
10.546017
 20
17.348814
 10
10.540344
 20
17.356406
 10
10.53434
 20
17.363762
 10
10.52801
 20
17.370868
 10
10.521362
 20
17.377714
 10
10.5144
 20
17.384289
 10
10.423758
 20
17.440077
 10
10.428817
 20
17.450505
 10
10.43345
 20
17.461115
 10
10.437652
 20
17.471893
 10
10.441418
 20
17.482825
 10
10.444745
 20
17.4939
 10
10.447628
 20
17.505103
 10
10.450062
 20
17.516421
 10
10.452045
 20
17.527841
 10
10.558205
 20
17.520198
 10
10.567695
 20
17.52147
 10
10.57709
 20
17.523145
 10
10.586378
 20
17.525218
 10
10.595548
 20
17.527683
 10
10.604587
 20
17.530533
 10
10.613484
 20
17.533764
 10
10.622226
 20
17.53737
 10
10.630803
 20
17.541344
 10
10.639202
 20
17.545681
 10
10.647412
 20
17.550376
 10
10.65542
 20
17.555422
 10
10.663216
 20
17.560813
 10
10.670786
 20
17.566544
 10
10.678119
 20
17.572609
 10
10.685204
 20
17.579003
 10
10.692029
 20
17.585719
 10
10.691455
 20
17.599952
 10
10.690496
 20
17.614161
 10
10.689153
 20
17.62834
 10
10.687427
 20
17.642479
 10
10.679609
 20
17.648008
 10
10.671587
 20
17.653176
 10
10.663372
 20
17.657981
 10
10.654977
 20
17.662418
 10
10.646416
 20
17.666483
 10
10.637699
 20
17.670172
 10
10.62884
 20
17.673483
 10
10.619852
 20
17.67641
 10
10.610747
 20
17.678951
 10
10.601538
 20
17.681101
 10
10.592236
 20
17.682856
 10
10.582856
 20
17.684214
 10
10.573409
 20
17.685169
 10
10.563909
 20
17.685718
 10
10.554366
 20
17.685858
 10
10.544795
 20
17.685584
 10
10.441253
 20
17.660939
 10
10.437457
 20
17.67189
 10
10.433231
 20
17.682668
 10
10.428581
 20
17.693261
 10
10.423513
 20
17.703654
 10
10.418035
 20
17.713837
 10
10.412152
 20
17.723798
 10
10.40587
 20
17.733522
 10
10.399196
 20
17.742999
 10
10.479668
 20
17.812662
 10
10.485479
 20
17.820271
 10
10.490937
 20
17.828099
 10
10.496039
 20
17.836133
 10
10.50078
 20
17.844359
 10
10.505156
 20
17.852767
 10
10.509163
 20
17.861342
 10
10.512795
 20
17.870074
 10
10.51605
 20
17.878949
 10
10.518922
 20
17.887955
 10
10.521408
 20
17.897079
 10
10.523502
 20
17.90631
 10
10.525202
 20
17.915634
 10
10.526503
 20
17.92504
 10
10.527399
 20
17.934514
 10
10.527888
 20
17.944045
 10
10.527965
 20
17.953619
 10
10.517495
 20
17.963278
 10
10.506769
 20
17.972647
 10
10.495794
 20
17.981723
 10
10.484575
 20
17.990501
 10
10.475138
 20
17.988882
 10
10.465811
 20
17.986864
 10
10.456605
 20
17.984453
 10
10.447532
 20
17.981654
 10
10.438603
 20
17.978475
 10
10.42983
 20
17.97492
 10
10.421225
 20
17.970997
 10
10.4128
 20
17.966711
 10
10.404565
 20
17.962069
 10
10.396533
 20
17.957078
 10
10.388715
 20
17.951742
 10
10.381122
 20
17.946069
 10
10.373767
 20
17.940065
 10
10.36666
 20
17.933735
 10
10.359814
 20
17.927087
 10
10.35324
 20
17.920125
 10
10.297451
 20
17.829483
 10
10.287023
 20
17.834542
 10
10.276413
 20
17.839175
 10
10.265636
 20
17.843377
 10
10.254703
 20
17.847143
 10
10.243629
 20
17.85047
 10
10.232426
 20
17.853353
 10
10.221108
 20
17.855787
 10
10.209687
 20
17.85777
 10
10.21733
 20
17.96393
 10
10.216058
 20
17.97342
 10
10.214383
 20
17.982815
 10
10.21231
 20
17.992103
 10
10.209846
 20
18.001273
 10
10.206995
 20
18.010312
 10
10.203764
 20
18.019209
 10
10.200158
 20
18.027951
 10
10.196184
 20
18.036528
 10
10.191847
 20
18.044927
 10
10.187152
 20
18.053137
 10
10.182107
 20
18.061145
 10
10.176715
 20
18.068941
 10
10.170984
 20
18.076511
 10
10.164919
 20
18.083844
 10
10.158526
 20
18.090929
 10
10.15181
 20
18.097754
 10
10.137577
 20
18.09718
 10
10.123367
 20
18.096221
 10
10.109189
 20
18.094878
 10
10.095049
 20
18.093152
 10
10.089521
 20
18.085334
 10
10.084352
 20
18.077312
 10
10.079548
 20
18.069097
 10
10.075111
 20
18.060702
 10
10.071046
 20
18.052141
 10
10.067356
 20
18.043424
 10
10.064046
 20
18.034565
 10
10.061118
 20
18.025577
 10
10.058577
 20
18.016472
 10
10.056428
 20
18.007263
 10
10.054672
 20
17.997961
 10
10.053315
 20
17.988581
 10
10.052359
 20
17.979134
 10
10.05181
 20
17.969634
 10
10.05167
 20
17.960091
 10
10.051944
 20
17.950521
 10
10.07659
 20
17.846978
 10
10.065638
 20
17.843182
 10
10.05486
 20
17.838956
 10
10.044268
 20
17.834306
 10
10.033874
 20
17.829238
 10
10.023691
 20
17.82376
 10
10.013731
 20
17.817877
 10
10.004006
 20
17.811595
 10
9.994529
 20
17.804921
 10
9.924867
 20
17.885393
 10
9.917257
 20
17.891204
 10
9.909429
 20
17.896662
 10
9.901396
 20
17.901764
 10
9.893169
 20
17.906506
 10
9.884762
 20
17.910881
 10
9.876186
 20
17.914888
 10
9.867454
 20
17.91852
 10
9.85858
 20
17.921775
 10
9.849574
 20
17.924647
 10
9.840449
 20
17.927133
 10
9.831218
 20
17.929227
 10
9.821894
 20
17.930927
 10
9.812489
 20
17.932228
 10
9.803014
 20
17.933124
 10
9.793484
 20
17.933613
 10
9.783909
 20
17.93369
 10
9.774251
 20
17.92322
 10
9.764881
 20
17.912494
 10
9.755805
 20
17.901519
 10
9.747028
 20
17.8903
 10
9.748646
 20
17.880863
 10
9.750664
 20
17.871536
 10
9.753075
 20
17.86233
 10
9.755874
 20
17.853257
 10
9.759054
 20
17.844328
 10
9.762608
 20
17.835555
 10
9.766532
 20
17.826951
 10
9.770817
 20
17.818525
 10
9.775459
 20
17.81029
 10
9.780451
 20
17.802258
 10
9.785786
 20
17.79444
 10
9.791459
 20
17.786847
 10
9.797464
 20
17.779492
 10
9.803793
 20
17.772385
 10
9.810442
 20
17.765539
 10
9.817403
 20
17.758965
 10
9.908046
 20
17.703176
 10
9.902986
 20
17.692748
 10
9.898353
 20
17.682138
 10
9.894152
 20
17.671361
 10
9.890385
 20
17.660428
 10
9.887058
 20
17.649354
 10
9.884176
 20
17.638151
 10
9.881741
 20
17.626833
 10
9.879759
 20
17.615412
 10
9.773598
 20
17.623055
 10
9.764108
 20
17.621783
 10
9.754713
 20
17.620108
 10
9.745425
 20
17.618035
 10
9.736256
 20
17.615571
 10
9.727216
 20
17.61272
 10
9.71832
 20
17.609489
 10
9.709577
 20
17.605883
 10
9.701
 20
17.601909
 10
9.692601
 20
17.597572
 10
9.684391
 20
17.592878
 10
9.676383
 20
17.587832
 10
9.668588
 20
17.58244
 10
9.661018
 20
17.576709
 10
9.653684
 20
17.570644
 10
9.646599
 20
17.564251
 10
9.639775
 20
17.557535
 10
9.640349
 20
17.543302
 10
9.641307
 20
17.529092
 10
9.64265
 20
17.514914
1001
ACAD
1000
TCW40_DEV_WIDTH
1002
{
1040
-3.0
1002
}
  0
LWPOLYLINE
  5
5D
100
AcDbEntity
  8
0
100
AcDbPolyline
 90
       64
 70
         129
 10
10.165902
 20
17.665377
 10
10.175487
 20
17.664893
 10
10.184796
 20
17.663472
 10
10.19378
 20
17.661162
 10
10.202393
 20
17.658009
 10
10.210588
 20
17.654062
 10
10.218318
 20
17.649366
 10
10.225535
 20
17.643969
 10
10.232193
 20
17.637918
 10
10.238244
 20
17.63126
 10
10.243641
 20
17.624043
 10
10.248337
 20
17.616314
 10
10.252284
 20
17.608118
 10
10.255437
 20
17.599505
 10
10.257747
 20
17.590521
 10
10.259168
 20
17.581212
 10
10.259652
 20
17.571627
 10
10.259168
 20
17.562041
 10
10.257747
 20
17.552733
 10
10.255437
 20
17.543748
 10
10.252284
 20
17.535135
 10
10.248337
 20
17.52694
 10
10.243641
 20
17.51921
 10
10.238244
 20
17.511993
 10
10.232193
 20
17.505335
 10
10.225535
 20
17.499285
 10
10.218318
 20
17.493888
 10
10.210588
 20
17.489192
 10
10.202393
 20
17.485244
 10
10.19378
 20
17.482092
 10
10.184796
 20
17.479781
 10
10.175487
 20
17.478361
 10
10.165902
 20
17.477877
 10
10.156316
 20
17.478361
 10
10.147008
 20
17.479781
 10
10.138023
 20
17.482092
 10
10.12941
 20
17.485244
 10
10.121215
 20
17.489192
 10
10.113485
 20
17.493888
 10
10.106268
 20
17.499285
 10
10.09961
 20
17.505335
 10
10.09356
 20
17.511993
 10
10.088163
 20
17.51921
 10
10.083467
 20
17.52694
 10
10.079519
 20
17.535135
 10
10.076366
 20
17.543748
 10
10.074056
 20
17.552733
 10
10.072636
 20
17.562041
 10
10.072152
 20
17.571627
 10
10.072636
 20
17.581212
 10
10.074056
 20
17.590521
 10
10.076366
 20
17.599505
 10
10.079519
 20
17.608118
 10
10.083467
 20
17.616314
 10
10.088163
 20
17.624043
 10
10.09356
 20
17.63126
 10
10.09961
 20
17.637918
 10
10.106268
 20
17.643969
 10
10.113485
 20
17.649366
 10
10.121215
 20
17.654062
 10
10.12941
 20
17.658009
 10
10.138023
 20
17.661162
 10
10.147008
 20
17.663472
 10
10.156316
 20
17.664893
1001
ACAD
1000
TCW40_DEV_WIDTH
1002
{
1040
-3.0
1002
}
  0
LWPOLYLINE
  5
5E
100
AcDbEntity
  8
0
100
AcDbPolyline
 90
       48
 70
         129
 10
2.633063
 20
18.045732
 42
0.173574
 10
2.636143
 20
17.896761
 10
2.691579
 20
17.805902
 42
0.080147
 10
2.626531
 20
17.740546
 10
2.535411
 20
17.795552
 42
0.173574
 10
2.386427
 20
17.797927
 42
0.027069
 10
2.364759
 20
17.745264
 42
0.173574
 10
2.472275
 20
17.642104
 10
2.575721
 20
17.617056
 42
0.080147
 10
2.575939
 20
17.524846
 10
2.472613
 20
17.49931
 42
0.173574
 10
2.365586
 20
17.395642
 42
0.027069
 10
2.387503
 20
17.343082
 42
0.173574
 10
2.536473
 20
17.346162
 10
2.627332
 20
17.401598
 42
0.080147
 10
2.692688
 20
17.33655
 10
2.637683
 20
17.24543
 42
0.173574
 10
2.635307
 20
17.096446
 42
0.027069
 10
2.68797
 20
17.074778
 42
0.173574
 10
2.791131
 20
17.182294
 10
2.816178
 20
17.28574
 42
0.080147
 10
2.908388
 20
17.285958
 10
2.933925
 20
17.182632
 42
0.173574
 10
3.037592
 20
17.075605
 42
0.027069
 10
3.090152
 20
17.097522
 42
0.173574
 10
3.087073
 20
17.246492
 10
3.031637
 20
17.337351
 42
0.080147
 10
3.096685
 20
17.402707
 10
3.187805
 20
17.347702
 42
0.173574
 10
3.336788
 20
17.345326
 42
0.027069
 10
3.358456
 20
17.397989
 42
0.173574
 10
3.25094
 20
17.50115
 10
3.147494
 20
17.526197
 42
0.080147
 10
3.147276
 20
17.618407
 10
3.250603
 20
17.643944
 42
0.173574
 10
3.35763
 20
17.747611
 42
0.027069
 10
3.335713
 20
17.800171
 42
0.173574
 10
3.186742
 20
17.797091
 10
3.095884
 20
17.741656
 42
0.080147
 10
3.030527
 20
17.806704
 10
3.085533
 20
17.897824
 42
0.173574
 10
3.087908
 20
18.046807
 42
0.027069
 10
3.035245
 20
18.068475
 42
0.173574
 10
2.932085
 20
17.960959
 10
2.907037
 20
17.857513
 42
0.080147
 10
2.814827
 20
17.857295
 10
2.789291
 20
17.960622
 42
0.173574
 10
2.685623
 20
18.067649
 42
0.02707
  0
LWPOLYLINE
  5
5F
100
AcDbEntity
  8
0
100
AcDbPolyline
 90
        4
 70
         129
 10
2.861608
 20
17.665377
 42
-0.414214
 10
2.955358
 20
17.571627
 42
-0.414214
 10
2.861608
 20
17.477877
 42
-0.414214
 10
2.767858
 20
17.571627
 42
-0.414214
  0
LWPOLYLINE
  5
60
100
AcDbEntity
  8
0
100
AcDbPolyline
 90
        4
 70
         129
 10
4.810861
 20
21.00193
 42
-0.414214
 10
4.904611
 20
20.90818
 42
-0.414214
 10
4.810861
 20
20.81443
 42
-0.414214
 10
4.717111
 20
20.90818
 42
-0.414214
  0
LWPOLYLINE
  5
61
100
AcDbEntity
  8
0
100
AcDbPolyline
 90
        4
 70
         129
 10
0.616642
 20
19.638932
 42
-0.414214
 10
0.710392
 20
19.545182
 42
-0.414214
 10
0.616642
 20
19.451432
 42
-0.414214
 10
0.522892
 20
19.545182
 42
-0.414214
  0
LWPOLYLINE
  5
62
100
AcDbEntity
  8
0
100
AcDbPolyline
 90
        6
 70
         129
 10
4.894621
 20
21.209246
 42
-0.421924
 10
5.109625
 20
20.816546
 42
-0.421924
 10
4.711416
 20
20.611925
 42
0.330314
 10
0.871246
 20
19.363983
 42
-0.421924
 10
0.428822
 20
19.295423
 42
-0.421924
 10
0.3719
 20
19.739495
 42
-0.301439
  0
LWPOLYLINE
  5
63
100
AcDbEntity
  8
0
100
AcDbPolyline
 90
        7
 70
         129
 10
0.643968
 20
24.024812
 42
-0.567368
 10
0.680871
 20
24.435192
 42
0.203815
 10
2.749883
 20
26.795546
 42
-0.250799
 10
4.379671
 20
23.400609
 42
-0.846039
 10
3.665153
 20
23.312619
 42
0.394163
 10
3.506288
 20
23.405898
 42
-0.220618
 10
0.636598
 20
24.030385
  0
LWPOLYLINE
  5
64
100
AcDbEntity
  8
0
100
AcDbPolyline
 90
        4
 70
         129
 10
0.785037
 20
24.312726
 42
-0.414214
 10
0.878787
 20
24.218976
 42
-0.414214
 10
0.785037
 20
24.125226
 42
-0.414214
 10
0.691287
 20
24.218976
 42
-0.414214
  0
LWPOLYLINE
  5
65
100
AcDbEntity
  8
0
100
AcDbPolyline
 90
        4
 70
         129
 10
4.015022
 20
23.510373
 42
-0.414214
 10
4.108772
 20
23.416623
 42
-0.414214
 10
4.015022
 20
23.322873
 42
-0.414214
 10
3.921272
 20
23.416623
 42
-0.414214
  0
LWPOLYLINE
  5
66
100
AcDbEntity
  8
0
100
AcDbPolyline
 90
        4
 70
         129
 10
9.770068
 20
21.00193
 42
-0.414214
 10
9.863818
 20
20.90818
 42
-0.414214
 10
9.770068
 20
20.81443
 42
-0.414214
 10
9.676318
 20
20.90818
 42
-0.414214
  0
LWPOLYLINE
  5
67
100
AcDbEntity
  8
0
100
AcDbPolyline
 90
        4
 70
         129
 10
5.575849
 20
19.638932
 42
-0.414214
 10
5.669599
 20
19.545182
 42
-0.414214
 10
5.575849
 20
19.451432
 42
-0.414214
 10
5.482099
 20
19.545182
 42
-0.414214
  0
LWPOLYLINE
  5
68
100
AcDbEntity
  8
0
100
AcDbPolyline
 90
        6
 70
         129
 10
9.853827
 20
21.209246
 42
-0.421924
 10
10.068831
 20
20.816546
 42
-0.421924
 10
9.670623
 20
20.611925
 42
0.330314
 10
5.830453
 20
19.363983
 42
-0.421924
 10
5.388028
 20
19.295423
 42
-0.421924
 10
5.331106
 20
19.739495
 42
-0.301439
  0
LWPOLYLINE
  5
69
100
AcDbEntity
  8
0
100
AcDbPolyline
 90
        4
 70
         129
 10
14.729275
 20
21.00193
 42
-0.414214
 10
14.823025
 20
20.90818
 42
-0.414214
 10
14.729275
 20
20.81443
 42
-0.414214
 10
14.635525
 20
20.90818
 42
-0.414214
  0
LWPOLYLINE
  5
6A
100
AcDbEntity
  8
0
100
AcDbPolyline
 90
        4
 70
         129
 10
10.535056
 20
19.638932
 42
-0.414214
 10
10.628806
 20
19.545182
 42
-0.414214
 10
10.535056
 20
19.451432
 42
-0.414214
 10
10.441306
 20
19.545182
 42
-0.414214
  0
LWPOLYLINE
  5
6B
100
AcDbEntity
  8
0
100
AcDbPolyline
 90
        6
 70
         129
 10
14.813034
 20
21.209246
 42
-0.421924
 10
15.028038
 20
20.816546
 42
-0.421924
 10
14.629829
 20
20.611925
 42
0.330314
 10
10.789659
 20
19.363983
 42
-0.421924
 10
10.347235
 20
19.295423
 42
-0.421924
 10
10.290313
 20
19.739495
 42
-0.301439
  0
LWPOLYLINE
  5
6C
100
AcDbEntity
  8
0
100
AcDbPolyline
 90
        4
 70
         129
 10
19.688481
 20
21.00193
 42
-0.414214
 10
19.782231
 20
20.90818
 42
-0.414214
 10
19.688481
 20
20.81443
 42
-0.414214
 10
19.594731
 20
20.90818
 42
-0.414214
  0
LWPOLYLINE
  5
6D
100
AcDbEntity
  8
0
100
AcDbPolyline
 90
        4
 70
         129
 10
15.494262
 20
19.638932
 42
-0.414214
 10
15.588012
 20
19.545182
 42
-0.414214
 10
15.494262
 20
19.451432
 42
-0.414214
 10
15.400512
 20
19.545182
 42
-0.414214
  0
LWPOLYLINE
  5
6E
100
AcDbEntity
  8
0
100
AcDbPolyline
 90
        6
 70
         129
 10
19.77224
 20
21.209246
 42
-0.421924
 10
19.987244
 20
20.816546
 42
-0.421924
 10
19.589036
 20
20.611925
 42
0.330314
 10
15.748866
 20
19.363983
 42
-0.421924
 10
15.306441
 20
19.295423
 42
-0.421924
 10
15.24952
 20
19.739495
 42
-0.301439
  0
LWPOLYLINE
  5
6F
100
AcDbEntity
  8
0
100
AcDbPolyline
 90
        4
 70
         129
 10
24.647688
 20
21.00193
 42
-0.414214
 10
24.741438
 20
20.90818
 42
-0.414214
 10
24.647688
 20
20.81443
 42
-0.414214
 10
24.553938
 20
20.90818
 42
-0.414214
  0
LWPOLYLINE
  5
70
100
AcDbEntity
  8
0
100
AcDbPolyline
 90
        4
 70
         129
 10
20.453469
 20
19.638932
 42
-0.414214
 10
20.547219
 20
19.545182
 42
-0.414214
 10
20.453469
 20
19.451432
 42
-0.414214
 10
20.359719
 20
19.545182
 42
-0.414214
  0
LWPOLYLINE
  5
71
100
AcDbEntity
  8
0
100
AcDbPolyline
 90
        6
 70
         129
 10
24.731447
 20
21.209246
 42
-0.421924
 10
24.946451
 20
20.816546
 42
-0.421924
 10
24.548243
 20
20.611925
 42
0.330314
 10
20.708072
 20
19.363983
 42
-0.421924
 10
20.265648
 20
19.295423
 42
-0.421924
 10
20.208726
 20
19.739495
 42
-0.301439
  0
LWPOLYLINE
  5
72
100
AcDbEntity
  8
0
100
AcDbPolyline
 90
        7
 70
         129
 10
4.622432
 20
24.024812
 42
-0.567368
 10
4.659334
 20
24.435192
 42
0.203815
 10
6.728347
 20
26.795546
 42
-0.250799
 10
8.358134
 20
23.400609
 42
-0.846039
 10
7.643617
 20
23.312619
 42
0.394163
 10
7.484751
 20
23.405898
 42
-0.220618
 10
4.615061
 20
24.030385
  0
LWPOLYLINE
  5
73
100
AcDbEntity
  8
0
100
AcDbPolyline
 90
        4
 70
         129
 10
4.7635
 20
24.312726
 42
-0.414214
 10
4.85725
 20
24.218976
 42
-0.414214
 10
4.7635
 20
24.125226
 42
-0.414214
 10
4.66975
 20
24.218976
 42
-0.414214
  0
LWPOLYLINE
  5
74
100
AcDbEntity
  8
0
100
AcDbPolyline
 90
        4
 70
         129
 10
7.993486
 20
23.510373
 42
-0.414214
 10
8.087236
 20
23.416623
 42
-0.414214
 10
7.993486
 20
23.322873
 42
-0.414214
 10
7.899736
 20
23.416623
 42
-0.414214
  0
LWPOLYLINE
  5
75
100
AcDbEntity
  8
0
100
AcDbPolyline
 90
        7
 70
         129
 10
8.600895
 20
24.024812
 42
-0.567368
 10
8.637798
 20
24.435192
 42
0.203815
 10
10.706811
 20
26.795546
 42
-0.250799
 10
12.336598
 20
23.400609
 42
-0.846039
 10
11.62208
 20
23.312619
 42
0.394163
 10
11.463215
 20
23.405898
 42
-0.220618
 10
8.593525
 20
24.030385
  0
LWPOLYLINE
  5
76
100
AcDbEntity
  8
0
100
AcDbPolyline
 90
        4
 70
         129
 10
8.741964
 20
24.312726
 42
-0.414214
 10
8.835714
 20
24.218976
 42
-0.414214
 10
8.741964
 20
24.125226
 42
-0.414214
 10
8.648214
 20
24.218976
 42
-0.414214
  0
LWPOLYLINE
  5
77
100
AcDbEntity
  8
0
100
AcDbPolyline
 90
        4
 70
         129
 10
11.971949
 20
23.510373
 42
-0.414214
 10
12.065699
 20
23.416623
 42
-0.414214
 10
11.971949
 20
23.322873
 42
-0.414214
 10
11.878199
 20
23.416623
 42
-0.414214
  0
LWPOLYLINE
  5
78
100
AcDbEntity
  8
0
100
AcDbPolyline
 90
        7
 70
         129
 10
12.579359
 20
24.024812
 42
-0.567368
 10
12.616261
 20
24.435192
 42
0.203815
 10
14.685274
 20
26.795546
 42
-0.250799
 10
16.315061
 20
23.400609
 42
-0.846039
 10
15.600544
 20
23.312619
 42
0.394163
 10
15.441678
 20
23.405898
 42
-0.220618
 10
12.571988
 20
24.030385
  0
LWPOLYLINE
  5
79
100
AcDbEntity
  8
0
100
AcDbPolyline
 90
        4
 70
         129
 10
12.720427
 20
24.312726
 42
-0.414214
 10
12.814177
 20
24.218976
 42
-0.414214
 10
12.720427
 20
24.125226
 42
-0.414214
 10
12.626677
 20
24.218976
 42
-0.414214
  0
LWPOLYLINE
  5
7A
100
AcDbEntity
  8
0
100
AcDbPolyline
 90
        4
 70
         129
 10
15.950413
 20
23.510373
 42
-0.414214
 10
16.044163
 20
23.416623
 42
-0.414214
 10
15.950413
 20
23.322873
 42
-0.414214
 10
15.856663
 20
23.416623
 42
-0.414214
  0
LWPOLYLINE
  5
7B
100
AcDbEntity
  8
0
100
AcDbPolyline
 90
        7
 70
         129
 10
16.557822
 20
24.024812
 42
-0.567368
 10
16.594725
 20
24.435192
 42
0.203815
 10
18.663738
 20
26.795546
 42
-0.250799
 10
20.293525
 20
23.400609
 42
-0.846039
 10
19.579007
 20
23.312619
 42
0.394163
 10
19.420142
 20
23.405898
 42
-0.220618
 10
16.550452
 20
24.030385
  0
LWPOLYLINE
  5
7C
100
AcDbEntity
  8
0
100
AcDbPolyline
 90
        4
 70
         129
 10
16.698891
 20
24.312726
 42
-0.414214
 10
16.792641
 20
24.218976
 42
-0.414214
 10
16.698891
 20
24.125226
 42
-0.414214
 10
16.605141
 20
24.218976
 42
-0.414214
  0
LWPOLYLINE
  5
7D
100
AcDbEntity
  8
0
100
AcDbPolyline
 90
        4
 70
         129
 10
19.928876
 20
23.510373
 42
-0.414214
 10
20.022626
 20
23.416623
 42
-0.414214
 10
19.928876
 20
23.322873
 42
-0.414214
 10
19.835126
 20
23.416623
 42
-0.414214
  0
LWPOLYLINE
  5
7E
100
AcDbEntity
  8
0
 62
           7
100
AcDbPolyline
 90
        4
 70
         129
 10
18.024643744111
 20
15.439839635271
 42
-0.414214
 10
18.044073544759
 20
15.570990475695
 42
-0.414214
 10
18.175224385183
 20
15.551560675046
 42
-0.414214
 10
18.15579553559
 20
15.420409525606
 42
-0.414214
  0
LWPOLYLINE
  5
7F
100
AcDbEntity
  8
0
 62
           7
100
AcDbPolyline
 90
        4
 70
         129
 10
10.135552721208
 20
12.670995282782
 42
-0.414214
 10
10.016824998404
 20
12.730001959817
 42
-0.414214
 10
10.075831675439
 20
12.848729682621
 42
-0.414214
 10
10.194559986028
 20
12.789723814603
 42
-0.414214
  0
LWPOLYLINE
  5
80
100
AcDbEntity
  8
0
 62
           7
100
AcDbPolyline
 90
        4
 70
         129
 10
10.331016989003
 20
4.312403898107
 42
-0.414214
 10
10.238209420254
 20
4.217721189654
 42
-0.414214
 10
10.143526711802
 20
4.310528758403
 42
-0.414214
 10
10.236333692765
 20
4.405212275873
 42
-0.414214
  0
LWPOLYLINE
  5
81
100
AcDbEntity
  8
0
 62
           7
100
AcDbPolyline
 90
        4
 70
         129
 10
18.340911572988
 20
1.915354676795
 42
-0.414214
 10
18.402281063893
 20
1.79783086779
 42
-0.414214
 10
18.284757254887
 20
1.736461376885
 42
-0.414214
 10
18.223386812926
 20
1.853984876874
 42
-0.414214
  0
ENDSEC
  0
SECTION
  2
OBJECTS
  0
DICTIONARY
  5
19
100
AcDbDictionary
  3
ACAD_GROUP
350
1A
  3
ACAD_MLINESTYLE
350
1B
  0
DICTIONARY
  5
1A
102
{ACAD_REACTORS
330
19
102
}
100
AcDbDictionary
  0
DICTIONARY
  5
1B
102
{ACAD_REACTORS
330
19
102
}
100
AcDbDictionary
  3
STANDARD
350
1C
  0
MLINESTYLE
  5
1C
100
AcDbMlineStyle
  2
STANDARD
 70
           0
  3

 62
         256
 51
90.0
 52
90.0
 71
           6
 49
0.5
 62
         256
  6
BYLAYER
 49
-0.5
 62
         256
  6
BYLAYER
 49
0.5
 62
         256
  6
BYLAYER
 49
-0.5
 62
         256
  6
BYLAYER
 49
1.0
 62
         256
  6
BYLAYER
 49
-1.0
 62
         256
  6
BYLAYER
  0
ENDSEC
  0
EOF
